Acordes de Guitarra » C »Chino y Nacho » Me voy enamorando (Tab)

Me voy enamorando
Chino y Nacho

Letras, Acordes y Tabs para Guitarra, Bajo y Ukulele

  • Intro F#m D A E
    
                       F#m
    Me voy, me voy enamorando
             D
    Ohhhh uhooo
    A
    Chino, Chino y Nacho
               E
    Me voy enamorando (Nacho)
    
    Master celis
    
    Farruko, Tainy
    
     F#m
    Apenas nos vimos
           D              A
    Se que nos sentimos brutal
                    E
    
  • Intro Gm D# A# F
    
    Gm
    Me voy, me voy enamorando
    D#
    Ohhhh uhooo
    A#
    Chino, Chino y Nacho
    F
    Me voy enamorando (Nacho)
    
    Master celis
    
    Farruko, Tainy
    
     Gm
    Apenas nos vimos
       D#                    A#
    Sé que nos sentimos brutal
                    F
    
  •  MIm
    Apenas nos vimos
       DO                   SOL
    Sé que nos sentimos brutal
                    RE
    Y a mí me tiene mal
    
      MIm
    Y tu sonreías
       DO
    Seguro sabias
                  SOL              RE
    Lo que a los dos nos iba a pasar
    (Yo sé que tu también sientes lo mismo)
    
    MIm                  DO
    Esta es mi forma de decirte hoy
    SOL                     RE
    Que donde tú me digas voy
    
    
  • E----3--5--6--5------------3--5--6--5---------------------------------------
    B---3---------------------3--------------------6--4-4H6-----3-3H4--1--------
    G--3---------------------3--------------------------------------------------
    D-5---------------------5---------------------------------------------------
    A---------------------------------------------------------------------------
    E---------------------------------------------------------------------------
    
    E---------------------------3-6-5-3----------------------------------8-6----
    B------1-3-4-3-1---3-------3-----------6-4-3-1-3-----4-6-----------6--------
    G-3P2H3----------3--------3------------------------------5--3-2--5----------
    D------------------------5--------------------------------------------------
    A---------------------------------------------------------------------------
    E---------------------------------------------------------------------------
    
    Y a mi me tiene mal.......Nos iba a pasar.....Hoy que donde tu me pidas voy
    E----------------------------------8-6--------------------------------------
    B------1-3-4-3-1---3--------------6------------6--4-4H6-----3-3H4--1--------
    G-3P2H3----------3----------3-2--5------------------------------------------
    D---------------------------------------------------------------------------
    A---------------------------------------------------------------------------
    
  • +
    ¡Colabora con nosotros!
    Envíanos tu versión de esta canción

Letra de Me voy enamorando
Me voy, me voy enamorando
Ohhhh uhooo
Chino, Chino y Nacho
Me voy enamorando (Nacho)
Master celis
Farruko, Tainy
Apenas nos vimos
Se que nos sentimos brutal
Y a mi me tiene mal
Y tu sonreías
Seguro sabias
Lo que a los dos nos iba a pasar
(Yo se que tu tambien sientes lo mismo)
Esta es mi forma de decirte hoy
Que donde tu me digas voy
Hay un lugar tan especial (tan especial)
Donde yo contigo quisiera estar
Ese lugar tan especial
Donde si quieres nos besamos
Y me voy enamorando
Me voy enamorando ohhhh uhooo
Me voy enamorando ohhhh uhooo
Me voy, me voy enamorando ohhhh ouhooo
Yeah, Chino y Nacho
Me voy enamorando ohhhh uhooo
Farruko
Yo no si es el escote en tu espalda
O si sera lo corta e' tu falda
Esas curvas tienen un hook que a mi me atrapa
Sobre tus alas yo despego mi vuelo
Bailar contigo pegaito yo quiero
Tu me llevas en tus brazos hasta el cielo
Ese lugar, tan especial
Donde yo contigo quisiera estar
Ese lugar, tan especial
Donde si quieres nos besamos
Me voy enamorando
Me voy enamorando ohhhh uhooo
Me voy enamorando ohhhh uhooo
Me voy, me voy enamorando ohhhh ouhooo
Me voy enamorando ohhhh uhooo
(Nacho)
Brutal, brutal
tu me pareces genial
tu tiene' un swing
Y un movimiento demasiado animal
Tu me provocas un sentimiento de caracter sensual
Tu eres una señorita original (wow)
Usted por la galaxia me tiene volando
Yo siento que las nubes estoy acariciando
Y es que de ti me voy enamorando
Me voy enamorando ohhhh uhooo
Me voy enamorando ohhhh uhooo
Me voy, me voy enamorando ohhhh ouhooo
Yeah, Chino y Nacho
Me voy enamorando ohhhh uhooo
Eey,
No te sorprendas estas escuchando a Chino y Nacho
Gozando en el estudio junto a los muchachos
Motiff, Farruko
Chino y Nacho bebe
Pa’ que goces tu ves
Romántico, si
Pero le metemos brutal, brutal
Me voy enamorando ohhhh uhooo
Me voy enamorando ohhhh uhooo
Me voy, me voy enamorando ohhhh ouhooo
Yeah, Chino y Nacho
Me voy enamorando ohhhh uhooo
Chino y Nacho, Farruko
Saludos que disfruten de este excelente tema. -VENEZUELA




[Me voy enamorando chords][Me voy enamorando cifra]
© LaCuerda.net · aviso legal · privacidad · es · en · pt · contacto