Acordes de Guitarra » C »Los Charros » Amores como el nuestro (Tab)

Amores como el nuestro
Los Charros

  • Letra y Acordes
    Am                                     G
    Amores como el nuestro quedan ya muy pocos
    Am                                  G
    Del cielo caen estrellas sin oír deseos
    Am                               G
    Desojar una rosa ya es cosa de tontos
    Am                              G
    Aquí no interesan ya los sentimientos.
    
    
    
    E7            Am    G             C
    Como los unicornios van desapareciendo
    A            Dm   G                         C
    Amar es algo hermoso solo es cuestión de un beso
    E7              Am      G*
    Un amor como el nuestro
                     Am
    No debe morir jamás.
    
    
  • Tablatura
    Esta es la intro q hace el teclado, para guitarra.
    Ojo q la primera parte se repite 2 veces antes de cambiar de tono.
    
    E||-----------0---------------|-------------------------||
    B||-----0h1h3------3--1--0----|-----0--3----1--0--------||
    G||*--2-----------------------|--0----------------2----*||
    D||*--------------------------|------------------------*||
    A||---------------------------|-------------------------||
    E||---------------------------|-------------------------||
    
    ----------5---------------|----------3---------------|
    ----3h5h6------6--5--3----|----1h3h5------5--3--1----|
    --5-----------------------|--4-----------------------|
    --------------------------|--------------------------|
    --------------------------|--------------------------|
    --------------------------|--------------------------|
    
    ----------5---------------|----------3----------|--5-5-5-3-5-||
    ----3h5h6------6--5--3----|----1h3h5------5--3--|------------||
    --5-----------------------|--4------------------|------------||
    ---
  • Tablatura
    bueno esta es la intro de la cancion que tocan con teclado
    lo de abajo no se que es pero no lo voy a modificar por las dudas
    saludos
    
    
    ----------------------------------------------------------------e
    ----------------------------------------------------------------B
    ----------5-----------------------------------------------------G
    ------5-7----7-5-4-------4-5-7-5-4------------------------------D
    --5-7----------------5-7-----------7----------------------------A
    ----------------------------------------------------------------E
            x2
    
         A A A G A
    E8----0-0-0-3-0-
    B-12--2-2-2-0-2-
    G-----2-2-2-0-2-
    D-----2-2-2-0-2-
    A-----0-0-0-2-0-
    E-----------3---
    
    
    aguanten los charros los cadis y el rock and roll
  • +
    ¡Colabora con nosotros!
    Envíanos tu versión de esta canción

Letra de Amores como el nuestro
Amores como el nuestro quedan ya muy pocos
Del cielo caen estrellas sin oír deseos
Desojar una rosa ya es cosa de tontos
Aquí no interesan ya los sentimientos.
Como los unicornios van desapareciendo
Amar es algo hermoso solo es cuestión de un beso
Un amor como el nuestro
No debe morir jamás.
Amores como el nuestro cada vez hay menos
En los muros casi nadie pinta corazones
Ya nadie hace promesas más allá del tiempo
De sabanas mojadas hablan las canciones.
Como Romeo y Julieta lo nuestro es algo eterno
Amar es algo hermoso es darse por completo
Un amor como el nuestro
No debe morir jamás.
Como los unicornios……
Esta canción esta dedicada para mi hija Alison
Berazategui, 28-noviembre-1997 (047)
by macerathy@yahoo.com.ar / macerathy@hotmail.com



© LaCuerda.net · aviso legal · privacidad · contacto