Tablatura para Guitarra de Los Charros: Amores como el nuestro
Conexión · Inscripción
Letras y Acordes
Pantalla Completa
Imprimir
Versión Texto
Añadir Favorito
Otras Versiones

Mostrar Diagramas
Desfile Automático
Manipular Acordes
Formato del Texto


Amores como el nuestro(TAB)

Los Charros

calidad:
chrr0012
AUTOR: Los Charros  corregir
ALBUM: desconocido
Enviado por -Piojoso-
Esta es la intro q hace el teclado, para guitarra.
Ojo q la primera parte se repite 2 veces antes de cambiar de tono.

E||-----------0---------------|-------------------------||
B||-----0h1h3------3--1--0----|-----0--3----1--0--------||
G||*--2-----------------------|--0----------------2----*||
D||*--------------------------|------------------------*||
A||---------------------------|-------------------------||
E||---------------------------|-------------------------||

----------5---------------|----------3---------------|
----3h5h6------6--5--3----|----1h3h5------5--3--1----|
--5-----------------------|--4-----------------------|
--------------------------|--------------------------|
--------------------------|--------------------------|
--------------------------|--------------------------|

----------5---------------|----------3----------|--5-5-5-3-5-||
----3h5h6------6--5--3----|----1h3h5------5--3--|------------||
--5-----------------------|--4------------------|------------||
--------------------------|---------------------|------------||
--------------------------|---------------------|------------||
--------------------------|---------------------|------------||
Este fichero es trabajo propio de su transcriptor y representa su interpretación personal de la canción. El material contenido en esta página es
para exclusivo uso privado, por lo que se prohibe su reproducción o retransmisión, así como su uso para fines comerciales.


© LaCuerda.net · Aviso Legal · Privacidad