Tablatura para Guitarra de Charly García: Pasajera en Trance
Conexión · Inscripción
Letras y Acordes
Pantalla Completa
Imprimir
Versión Texto
Añadir Favorito
Otras Versiones

Mostrar Diagramas
Desfile Automático
Manipular Acordes
Formato del Texto


Pasajera en Trance(TAB)

Charly García

calidad:
cgar0406
AUTOR: Charly García
ALBUM: MTV Unplugged
Enviado por Jorge
Unplugged                        
                                 
INTRO: Teclado adaptado a guitarra

|---------------12----------------------12-------------------|
|-------13--15------13--15------13--15------13--15------13---|
|---14----------------------14----------------------14-------|
|------------------------------------------------------------|
|------------------------------------------------------------|
|------------------------------------------------------------|


|-----------12------------------12-------------------|
|---15--13------13--15------13------15--12-----------|
|-----------------------14------------------14--12---|
|----------------------------------------------------|
|----------------------------------------------------|
|----------------------------------------------------|


|---------------12----------------------12-------------------|
|-------13--15------13--15------13--15------13--15------13---|
|---14----------------------14----------------------14-------|
|------------------------------------------------------------|
|------------------------------------------------------------|
|------------------------------------------------------------|


|-----------12------------------12--15--15---|
|---15--13------13--15------13---------------|
|-----------------------14-------------------|
|--------------------------------------------|
|--------------------------------------------|
|--------------------------------------------|


|----------------------------------------15--15---|
|---13--12--13--12--13--13--12---12--15-----------|
|-------------------------------------------------|
|-------------------------------------------------|
|-------------------------------------------------|
|-------------------------------------------------|


|---13--12--13--12----------15---|
|-------------------13--12-------|
|--------------------------------|
|--------------------------------|
|--------------------------------|
|--------------------------------|


|----------------------------------------15--15--|
|---13--12--13--12--13--13--12---12--15----------|
|------------------------------------------------|
|------------------------------------------------|
|------------------------------------------------|
|------------------------------------------------|




Dm F G Ella está por embarcar,
Dm F G quizás consiga un pasaje en la borda.
Dm F G Ella está por despegar
Dm ella se va-a-a-a
Dm F G Ella viaja sin pagar
Dm F G el viejo truco de andar por la sombra.
Dm F G Ella baila sobre el mar
Dm ella se va.
D Pasajera en trance
G F pasajera en tránsito perpetuo
D Pasajera en trance
G F transitando los lugares ciertos.
D G F Un amor real, es cómo dormir y estar despierto
D G F Un amor real es como vivir en aeropuerto. REPITE LA INTRO Y CONTINUA CON EL ARREGLO DE CUERDAS |---------------------------------------| |---------------------------------------| |-------------------------7-------------| |---------5--7--7--5---9-----9--7-------| |---8--8---------------------------10---| |---------------------------------------| |---------------------------------------------| |---------------------------------------------| |---------------------------------------------| |------------------5----7--5--4-----5--4------| |---5--5--7--8--8----------------7--------7---| |---------------------------------------------| |------------------------------------| |------------------------------------| |--------------------------5--7--7---| |------------------5----7------------| |---5--5--7--8--8--------------------| |------------------------------------|
Este fichero es trabajo propio de su transcriptor y representa su interpretación personal de la canción. El material contenido en esta página es
para exclusivo uso privado, por lo que se prohibe su reproducción o retransmisión, así como su uso para fines comerciales.

© LaCuerda.net · Aviso Legal · Privacidad