Acordes de Guitarra » C »El Chapo de Sinaloa » Le hace falta un beso (Tab)

Le hace falta un beso
El Chapo de Sinaloa

Letras, Acordes y Tabs para Guitarra, Bajo y Ukulele

  • intro: F , C , Bb, C  (X 2)
    
                       F                                C
    El trabaja hasta tarde para que a ella no le falte nada
                   Bb                       C
    en su nido de amor ella lo espera enamorada
                     F                          C
    él a veces se olvida de las fechas importantes
                       Bb                               C     C7
    las facturas no esperan y él siempre es muy responsable
    
                 Bb                           C
    Pero ella siente que el amor se está apagando
                            A7                    Dm
    y que algo se está acabando la pasión se congeló
                      Bb                      C    C7
    y ella quisiera decir, y ella le quiere decir
    
                           F                    C
    Que le hace falta un beso, que le de una rosa
    
  •                    D                                A7
    El trabaja hasta tarde para que a ella no le falte nada
                   G              (Gm)      A7
    en su nido de amor ella lo espera enamorada
                     D                          A
    él a veces se olvida de las fechas importantes
                       G              (Gm)              A7
    las facturas no esperan y él siempre es muy responsable
    
    
    PUENTE:
                 G                            A
    Pero ella siente que el amor se está apagando
                            F#7                   Bm7
    y que algo se está acabando la pasión se congeló
                      Em                      A7
    y ella quisiera decir, y ella le quiere decir
    
    
    CORO:
    
  •   E                 C#m                     A           B
    --------------------------------------------------------2-----------e
    --0--0-0------0--0--5-----------------------5-----------4-----------B
    --1-1-1-1-----1-1-1-6-------------4-6-4-6-4-6-4---------4-----------G
    --2-----------2-----6-6---6-6--7------------7---7-6-6---4-----------D
    --------------------------------------------------------------------A
    --------------------------------------------------------------------E
    
    Aquí hay un cambio de B hasta E con el bajeo
    
      E                     B               A                 B
    --0--0-0-0-------0--0---2-2-------------------------------2-----------e
    --0-0-0---2-0----0-0-0--4--4------------5-----------------4-----------B
    --1--------------1------4---4---1-1-2-4-6-4-6-4-6-4-2-1-1-4-----------G
    ----------------------------------------7-----------------4-----------D
    ----------------------------------------------------------------------A
    ----------------------------------------------------------------------E
    
    
    
    
  • +
    ¡Colabora con nosotros!
    Envíanos tu versión de esta canción

Letra de Le hace falta un beso
El trabaja hasta tarde para que a ella no le falte nada
en su nido de amor ella lo espera enamorada
él a veces se olvida de las fechas importantes
las facturas no esperan y él siempre es muy responsable
Pero ella siente que el amor se está apagando
y que algo se está acabando la pasión se congeló
y ella quisiera decir, y ella le quiere decir
Que le hace falta un beso, que le de una rosa
que la haga sentir como cuando era su novia
que le haga detalles, que le hable de amor
que el conoce bien como ganar su corazón
Que le hace falta un beso, que le de una rosa
sueña con que vuelen en su vientre mariposas
ella tiene frío en su corazón
le hace falta un beso, ....le hace falta amor
-- SE REPITE --
Pero ella siente que el amor se está apagando
y que algo se está acabando la pasión se congeló
y ella quisiera decirle, y ella le quiere decir
Que le hace falta un beso, que le de una rosa
que la haga sentir como cuando era su novia
que le haga detalles, que le hable de amor
que el conoce bien como ganar su corazón
Que le hace falta un beso, que le de una rosa
sueña con que vuelen en su vientre mariposas
ella tiene frío en su corazón
le hace falta un beso, le hace falta amor.




[Le hace falta un beso chords][Le hace falta un beso cifra]
© LaCuerda.net · aviso legal · privacidad · es · en · pt · contacto