Acordes de Guitarra » C »Chancho en Piedra » Eligiendo una reina (Tab)

Eligiendo una reina
Chancho en Piedra

  • Tablatura
    E---------------------|-----------------|----------------
    B---------------------|-----------------|----------------
    G---------------------|-----------------|----------------
    D---------------------|-----------------|----------------
    A---------------------|-----------------|---6/7-6/7------
    E-0-3-5-6-5-0-3-0-0-3-|-5-3-5-6-5-0-3-0-|-3--------------
                                                                                  
    
    E-----------------|-------------|--------------------|
    B-----------------|-------------|--------------------|
    G-----------------|-------------|--------------------|
    D-----------------|-------------|--------------------|
    A-----------------|-------------|-3-3-2-2--3-2-------|
    E-0-3-5-6-5-0-3-0-|-5-6-3-5-3-0-|--------------5-3-0-|
    
    
    SIm                          FAm     
    Queremos ver las reinas del mañana
    SIm                 FAm   MIbm 
    con bikini toda la semana
    
  • Tab p/Bajo
    TAB por Pato: patojaram@hotmail.com
    
    *=Slap
    
    INTRO / CORO
    G|-----------------------------------------------
    D|-----------------------------------------------
    A|---------------------------------5/77\---------
    E|-(12/)0~3565330--03-5~-356533-353--------------
    
    G|-----------------------------------------------|
    D|-------------------*8--*8--*7--*7--------------|X2
    A|-----------------------------------------------|
    E|-0~-356533565353-*6--*6--*5--*5---6530---------|
    
    ESTROFA:
    G|----------------44---55------------------------
    D|---------------------------------------*4/*5---
    A|-------353~530-2---3---------353~530-2---------
    E|--035--------------------035-------------------
    
    G|----------------44--55-------------------------|
    D|-----------------------------------------------|X2 
    A|-------353~530-2---3-----------------7~5\------|
    E|--035-------------------000033305550-----------|
    
    CORO
    ESTROFA
    CORO
    SOLO DE GUITARRA
    
    G|-----------------------------------------------
  • +
    ¡Colabora con nosotros!
    Envíanos tu versión de esta canción

Letra de Eligiendo una reina
Queremos ver las reinas del mañana
con bikini toda la semana
debe tener carita de muñeca
Desde niña hacer dieta para su silueta
Debe tener desplante al hablar
y si es que gana se debe emocionar
ser nuestra cara en el extranjero
Dejando bien en clñaro que en Chile hay buen cuero
Al ganar sera sensacion
de las revistas y al television
pieza clave de los estelares
Dira que le gustan los niños y animales
Se creera toda una artista
pololeara con futbolista
Todo lo que haga debe salir en el diario


Podremos ver su par de buenas tetas
promocionando productos de belleza
su matrimonio sera fenomenal
Estara invitado todo nuestro jet set nacional
En el futuro sera animadora
ojala que a vieja llegue seductora
a los cuarenta se hara la cirujia
Su pega es ser rica para toda nuestra vida



© LaCuerda.net · aviso legal · privacidad · contacto
DINAMICO