Acordes de Guitarra » C »Chancho en Piedra » Eden (Tab)

Eden
Chancho en Piedra

Letras, Notas, Punteos, Tablaturas y Acordes de Guitarra (Tabs & Chords)

  • Tablatura
    esta es mi primera cancion ....segun yo esta wena , pero 
    sino filo , es solo una ayuda , se toca con un buen wua wua 
    y con arto tollo jejej
    
    
    
    intro : 
    la guitarra sola 
    
    
    |---x-x-x-x-----x--------------|
    |---x-x-x-x--10-x--------------|
    |---x-x-x-x-----x--11-11-11-11-|
    |---x-x-x-x-----x--------------|  X 3
    |---x-x-x-x-----x--------------|
    |---x-x-x-x-----x--------------|
    
    
    solo en la ultima 
    |---x-x-x-x-----x-----------------------|
    |---x-x-x-x--10-x---11-12-13-12-11------|
    |---x-x-x-x-----x-----------------------|
    |---x-x-x-x-----x-----------------------|  
    |---x-x-x-x-----x-----------------------|
    |---x-x-x-x-----x-----------------------|
    
    
    luego  sige lo mismo  con  toda la banda .....
    
    en los versos .se hasen variasiones de lo mismo 
    
    
    coro :
    
    fiestas eternas        un cielo funk 
    |------------------|-------------|
    |------------------|-------------|
    |------------5-----|-----5--7--5-|
    |---7--5-----5--7--|--7--5--7--5-|  
    |---7--5--2--3--7--|
  • Tablatura
    Intro
    la guitarra sola 				                          Esta parte es justo antes de 
    					                                  k empieza a cantar
    
    |---------------------------------------------|  |-------------------|    |-----------------------------|
    |--5-----------5-7-8-5--------------------| x3   |--5--5-7-5---------|    |------------57---------------|
    |-----77-5-7-------------------------------|     |----7---------7b---|    |--------57-----7---5-6-7-----|
    |---------------------------------------------|  |-------------------|    |---57--------------5-6-7-----|
    |---------------------------------------------|  |-------------------|    |--------------------3-4-5----|
    |---------------------------------------------|  |-------------------|.   |-----------------------------|
    
    En los versos .se hacen variasiones de lo mismo 
    
    Coro :
    
     Fiestas eternas un cielo funk...........
    |----------------------------------------------------------------------------|
    |------------------------
  • Tab p/Bajo
    Verso
    
       s ss sss ss s s p s ss sss s s   s    
    |------------------5-------------------|
    |--------------------------------------|  x3
    |--3-----------------3----------5h7-3--|
    |----55-035-33/5-5-----55-035-3--------|
    
    
    
       s ss sss ss s s p s s s s sp ss s    
    |------------------5----------5--------|
    |--------------------7-5---------------|
    |--3---------------------7-6-5---------|
    |----55-035-33/5-5--------------33-5---|
    
    
    
    
    coro
    
       s s s s s s s s s   s s        \
    |--------------------------------| |
    |------------------------3h4p3h4-| |
    |--------3-----3-5-3---3---------| |
    |--5-4-3---5-5-------------------| |
                                       |
       s s s s s s s  s s  ssp s s     |x2
    |--------------------------------| |
    |--------3---------------7-------| |
    |--5-3-----5------3--------------| |
    |------5-----3-5----5--55--4-3---| |
                                      /
    
    
    Verso
    
       s ss sss ss s s p s ss sss s s   s    
    |------------------5------------
  • +
    ¡Colabora con nosotros!
    Envíanos tu versión de esta canción





© LaCuerda.net · Aviso Legal · Privacidad