Acordes de Guitarra » C »Chancho en Piedra » Barco de papel (Tab)

Barco de papel
Chancho en Piedra

Letras, Notas, Punteos, Tablaturas y Acordes de Guitarra (Tabs & Chords)

  • Letra y Acordes
    intro SOLm -DO7 - SOLm - DO7 - RE#maj7 - DOm   X2
    
    A)
    RE#maj7            DOm  RE#maj7            DOm
    En un barco de papel   Con mis ilusiones me largue
    
    SOLm      FA      DOm         FA     SIb      FA      DOm
    Pague las deudas que anclaban mi ayer, para nunca mas volver
    
    B)
    RE#maj7            DOm   RE#maj7            DOm
    Navegando el ancho mar, que separa lo que fue y sera
    
    SOLm      FA      DOm       FA   SIb   FA    DOm      DO7
    Me halle perdido buscando tu voz casi a punto de encallar
    
    
    Coro:
    RE#maj7         FA         RE#maj7         FA
    Con el viento me llamabas, en tu playa naufrague
    
  • Tab p/Bajo
    Bueno aquí esta la tablatura pa bajo de el braco de papel y
    ojala q te buena o sino me mandan un mail para corregirla o nose aquí ta.
    
    Intro
    
    Solo bajo
    G------------------------------------------------------------------|
    D-----3-5--------------3-5----------------3-5----------------------|
    A---5-----3---3------5-----~3---3-------5-----3---3----~5-55-~3-33-|
    E-3---------6---5--3----------6---5--33---------6---5-3------------|
    Aquí con guitarra y batera
    G------------------------------------------------------------------|
    D-----3-5--------------3-5----------------3-5----------------------|
    A---5-----3---3------5-----~3---3-------5-----3---3----~5-55-~3-33-|
    E-3---------6---5--3----------6---5--33---------6---5-3------------|
    
    Verso
    
    En un barco de papel...
    G----------------------|
    D----------------------|
    A---~6--~4--~6--~4-----|
    E----------------------|
    Pague las...
    G----------------------------------------------|
    D----------------------------------------------|
    A---------------~3-33--
  • +
    ¡Colabora con nosotros!
    Envíanos tu versión de esta canción

Letra de Barco de papel
En un barco de papel Con mis ilusiones me largue
Pague las deudas que anclaban mi ayer, para nunca mas volver
Navegando el ancho mar, que separa lo que fue y sera
Me halle perdido buscando tu voz casi a punto de encallar
Con el viento me llamabas, en tu playa naufrague
Como retornado a tierra firme otra vez
Tus ojitos sonrieron en su verde me extravie
fragil como un pequño barco de papel
Blanca espuma y litoral, sirena cabellos de coral
Sobre la arena te veo danzar embriagado en tur ritual
si yo fuera capitan, tu seria esa luz que mi rumbo guiaria
zarpa conmigo, baila otra vez en mi barco de papel
con el viento fluiremos, las olas nos llevaran
mas alla de lo que pudimos imaginar
Tus ojitos sonrieron en su verde me extravie
que fragilidad pequeño barco de papel
Sirena del mar, blanca espuma y litoral
Con el viento me llamabas, en tu playa naufrague
Como retornado a tierra firme otra vez
Tus ojitos sonrieron en su verde me extravie
que fragilidad pequeño barco de papel
oohhhhhhhhhhhh ohhhhhhhhhhhh
ohhhhhhh ohhhhhhhhhhhhh
ahhhhhhhh ahhhhhhhhhhhh
que fragilidad pequeño barco de papel
termina en fa
Dedicado a ti paola velasquez A.!!!!!
TE AMO BEBE Y LO HARE SIEMPRE!!!!! :D
Klaudio

Videos de Barco de papel
[ver más videos]

[ver todas las canciones]


© LaCuerda.net · Aviso Legal · Privacidad