Acordes de Guitarra » C »Chancho en Piedra » Animales Disfrazados (Tab)

Animales Disfrazados
Chancho en Piedra

Letras, Acordes y Tabs para Guitarra, Bajo y Ukulele

  • F#m
    Para ti no soy importante
    B
    debo verme mas elegante
    C#m7    Bm                F#m
    yo no conozco a nadie influyente
    
    F#m
    Y no vengan aqui a tratarme asi
    B
    no entiendo como puedes juzgarme tu a mi
    C#m7            Bm                  F#m
    que sabes, como soy y que es lo que pienso
    
    C#m7
    Si al final
       Bm                 F#m
    da igual que seamos diferentes
    C#m7          Bm
    y da igual al final...
    
  •  FA#m7    Fam#7(*)
    |--5--|  |--9---|
    |--5--|  |--10--|
    |--6--|  |--9---|
    |--4--|  |--11--|
    |-----|  |------|
    |-----|  |------|
    
    (*): esta variación se puede usar en la estrofa, pero no la recomiendo
    
    *********************************************
    
    VERSO
    
     FA#m7      SIm       MI        DO#     
    |--5--|   |--7--|   |--7--|   |--9---|
    |--5--|   |--7--|   |--9--|   |--9---|
    |--6--|   |--7--|   |--9--|   |--10--|
    |--4--|   |--8--|   |--9--|   |--11--|
    |-----|   |-----|   |-----|   |------|
    
  • FA#m7 
    Para ti no soy importante
    SIm
    debo verme más elegante
    MI         DO#               FA#m7   
    yo no conozco a nadie influyente
    
    FA#m7
    Y no vengan aquí a tratarme así
    SIm
    no entiendo como puedes juzgarme tú a mí
    MI              DO#                   FA#m7  
    que sabes como soy y que es lo que pienso
    DO#m7             SIm7                     (A)     
    Si al final da igual que seamos diferentes
    DO#m7            SIm7
    y da igual al final.
    váyanse de aquí ustedes no son de elite
    son comunes y corrientes feos indecentes
    aquí nos reservamos el derecho de admisión
    
  • Chancho en Piedra
    Animales Disfrazados (Bass)
    El Tinto elemento (2002)
    
    
    *Tocar toda la canción con Slap
    
    Intro
                          
    |--------| 
    |--------| 
    |--------| 
    |-12\2--2| 
    
      2x
    |-----------------------------------------------------------------------------|
    |--------4-------------------4-------------------4--------------------4-------|
    |-----------------------------------------------------------------------------|
    |-1/2-2----2-2-2-------1/2-2----2-2-2------1/2-2----2-2-2-------1/2-2----2-2-2|
    
    
    Verso
    
      Para ti no  soy  importante   debo verme mas elegante.....
    |--------------------------------------4--------------4-----------|
    |--------4--------------4-----------------------------------------|
    |-------------------------------2--2-2----2-2--2--2-2---2-2-------|
    |-2--2-2----2-2--2--2-2---2-2-------------------------------------|
    
        yooooo   no conozco a nadie influyente 
    |------------------------------------------------------------------------
  • Intro
    
    |-------------------------|
    |------------44-------44--|
    |-------------------------|
    |-12/0-2-2-22---02-2-22---|
                            x4
    
    
    
    |--------------------------------------4--------------4-----------|
    |--------4--------------4-----------------------------------------|
    |-------------------------------2--2-2----2-2--2--2-2---2-2-------|
    |-2--2-2----2-2--2--2-2---2-2-------------------------------------|
    
    
    |-----------------------------------------------------------------------------|
    |---2-2-2-2-2----------------------------4-----------------4------------------|
    |----------------4-4-4----2h4-------------------------------------------------|
    |-----------------------------5-2---2-2-----2-2---2---2-2---- 2-2-------------|
    
    
    |--------------------------------------4--------------4-----------|
    |--------4--------------4-----------------------------------------|
    |-------------------------------2--2-2----2-2--2--2-2---2-2-------|
    |-2--2-2----2-2--2--2-2---
  • +
    ¡Colabora con nosotros!
    Envíanos tu versión de esta canción

Letra de Animales Disfrazados
Para ti no soy importante
debo verme mas elegante
yo no conozco a nadie influyente
Y no vengan aqui a tratarme asi
no entiendo como puedes juzgarme tu a mi
que sabes, como soy y que es lo que pienso
Si al final
da igual que seamos diferentes
y da igual al final...
Vayanse de aqui ustedes no son de elitte
son comunes y corrientes feos indecentes
Aqui nos reservamos el derecho de admision
Que te pasa a ti pobre infeliz
crees que tu puedes lograr distinguir
entre alguien importante y alguien desechable
Si al final
en el baño todos arrugamos
porque no somos mas
aqui no estoy seguro pero puedes quedarte en F#m
o alternar entre E mayor y F#m oo .. hacer lo que puse .. :P
Que animales disfrazados
de la humanidad
no te creas dios romano
como yo solo eres un humano
Hago un llamado a repudiar los lugares que no dejan entrar
a la gente por su aspecto
terminemos la falta de respeto
que importa el envase de un producto mediocre
que vale una foto si es malo el enfoque
prefiero llevar defectos por fuera
que ser un pobre muñeco de cera
Si al final
es mejor ser todos diferentes
es mejor ser asi
Que animales disfrazados
de la humanidad
no te creas dios romano
como yo solo eres un humano
Y quien sabe
como estaremos
en un tiempo mas
si no cambias,
tu arrogante forma de juzgar a los demas
por su disfraz
cuando aceptaras la realidad
de que no somos mas
Que animales disfrazados
de la humanidad
no te creas dios romano
como yo solo eres un humano
Animal...
con disfraz....
de la humanidad
Como yo solo eres un humano mas
Como estaremos
en un tiempo mas
cuando nada sea igual.




[Animales Disfrazados chords][Animales Disfrazados cifra]
© LaCuerda.net · aviso legal · privacidad · es · en · pt · contacto