Acordes de Guitarra » C »Chamalcan » Mírame (Tab)

Mírame
Chamalcan

Letras, Acordes y Tabs para Guitarra, Bajo y Ukulele

  • C                          D
    Hoy de nuevo me he quedado solo
          B#             E  E7
    Ilucionado y sin tu amor
                 C                     D
    No se hasta cuando, yo seguire esperando
                 B#                            E   E7
    Te quiero volver a ver, mas yo que puedo hacer
          C   D                    B#   E  E7
    Si lloraaar, quisiera que regresaraaas
          C          D                        B# 
    Si lloraaar no noo, me hiciera probar tus besos
            E E7           A                      D
    Una vez mas, me la pasaría llorándote noche y dia
                  G   G7
    En aquel viejoo bar
    C,D,B# ,E,E7,A ,D,G,G7.
        C         D                     B# 
    Mirame que ya no soporto mas la soledad
             E            E7           A 
    
  • E-----------------------------------------5-7-7-10-10---17-15-14--------------
    B--5-3-5----5-8-8--7-7-5--7-7---7-7-8-----------------------------15-12-12----
    G-----------------------------------------------------------------------------
    D-----------------------------------------------------------------------------
    A-----------------------------------------------------------------------------
    E-----------------------------------------------------------------------------
    
    
    E-----------------------------------------------------------------------------
    B--8-10-12---15-13-12--13-12---12-------13-12---------------------------------
    G---------------------------------12----------12-9----------------------------
    D---------------------------------------------------10-9----------------------
    A--------------------------------------------------------10-14-12-------------
    E-----------------------------------------------------------------------------
    
    
    E-----------------------------------------------------------------------------
    B-------7-8-10-8-7---10-8----15-13-12-13-12-----------------------------------
    G--7-9---------------------------------------12-9-7---------------------------
    D----------------------------------------------------10-9-7-5-----------------
    
  • +
    ¡Colabora con nosotros!
    Envíanos tu versión de esta canción

Letra de Mírame
Hoy de nuevo me he quedado solo
Ilucionado y sin tu amor
No se hasta cuando, yo seguire esperando
Te quiero volver a ver, mas yo que puedo hacer
Si lloraaar, quisiera que regresaraaas
Si lloraaar no noo, me hiciera probar tus besos
Una vez mas, me la pasaría llorándote noche y dia
En aquel viejoo bar
Mirame que ya no soporto mas la soledad
Entre el humo y el recuerdo y el alcohol
Me la paso cantándote esta canción
Si no vas a volver
Regresame el corazón que una vez te di
Esque no he podido amar como te ame a ti
Llename el vacio que dejaste en mi
Si lloraaaaar
Si tomar no noo me hiciera probar tus besos
Una vez mas, me la pasaría llorándote noche y dia
En aquel viejo bar.
BUENO PS HAY ESTA LA CANCION Q ESTA PARA LLORAR JAJAJA
KAMARA BANDA HOJALA Y LES HAYA GUSTADO ESTA ROLITA..
CUALQUIER COMENTARIO AKI ESTA MI CORREO leamsi_chiva@hotmail.com

Video de Mírame
[]




[Mírame chords][Mírame cifra]
© LaCuerda.net · aviso legal · privacidad · es · en · pt · contacto