Acordes de Guitarra » C »Chala Madre » Hasta Cuando? (Tab)

Hasta Cuando?
Chala Madre

Letras, Acordes y Tabs para Guitarra, Bajo y Ukulele

  • e|------------------------------------------|
    B|------3-----3-----3-1---------------------|
    G|----------------------3-2-----------------|
    D|-4h5-----5-----5----------3-2-------------|
    A|------------------------------------------|
    E|------------------------------------------|
    
    e|------------------------------------------|
    B|------3-----3-----3-1---------------------|
    G|----------------------3-2-----------------|
    D|-4h5-----5-----5----------3---------------|
    A|------------------------------------------|
    E|------------------------------------------|
    
    
    Verso
    
    Es extraño que todo vuelva atrás y sentirte otra vez,
    es extraño sino cambiamos mas y crecimos a la vez,
    Inocencia perdida,
    
  • +
    ¡Colabora con nosotros!
    Envíanos tu versión de esta canción

Letra de Hasta Cuando?
Verso
Es extraño que todo vuelva atrás y sentirte otra vez,
es extraño sino cambiamos mas y crecimos a la vez,
Inocencia perdida,
cuando nada los guia
pelogrosa mentira
cuando nadie confía
Estribillo
hooooooooy no llego para caer
me falta para creeeeer
y a veces no quiero ver
para que?
Verso
Hasta cuando pregunto seguiran?
entre tanto al reves,
Sin embrago es siempre un poco mas
Hasta cuando? ya no se...
Y no quedan mentiras
y en el fondo del dia,
uno a otro se miran
y ya nadie respira...
Hoy...(bis)
para que??
para que??
Hoy...
Espero q les sirva.Agunate CHALA Y RED HOT.




[Hasta Cuando? chords][Hasta Cuando? cifra]
© LaCuerda.net · aviso legal · privacidad · es · en · pt · contacto
DINAMICO