Acordes de Guitarra » C »Celtas Cortos » La Senda del Tiempo (Tab)

La Senda del Tiempo
Celtas Cortos

Letras, Acordes y Tabs para Guitarra, Bajo y Ukulele

  •        D      A        Bm           G       A          G
    E------------------------------------------------------7---7---
    B---------------------------------------7-8-10----7-10---------
    G------7-----------------7----------7-9------------------7-----
    D--7-9------7-7------7-9---9----7-9----------------------------
    A------------------9-------------------------------------------
    E--------------------------------------------------------------
    
    
    
        D       A        Bm      G        D       A
    E-7------------------------------------------------
    B---10----7-7--------7--------------------7-8-10---
    G----------------9-7---9-7---7--------7-9----------
    D--------------------------9------7-9--------------
    A--------------------------------------------------
    E--------------------------------------------------
    
    
    
    
  • G D Em C G D Em D G D Em C G D C D G
    
     G                   D
     A veces llega un momento en que
               Em         C
     te haces viejo de repente
            G           D
     sin arrugas en la frente
              Em          C
     pero con ganas de morir
    
         G             D
     Paseando por las calles
           Em            C
     todo tiene igual color
              G                D
     siento que algo hecho en falta
            C    D      G
     no se si será el amor
    
    
  • E-------------------------------------------------------7-10-7-
    B----------------------------------------7-8-10----7-10--------
    G------7------------------7----------7-9-----------------------
    D--7-9-------7-7------7-9---9----7-9---------------------------
    A-------------------9------------------------------------------
    E--------------------------------------------------------------
    
    E--7-----------------------------------------------------------
    B----10----7--7----------7----------------------7--8--10---8--7
    G------------------9--7---9--7-----7-------7--9----------------
    D-------------------------------9------7-9---------------------
    A--------------------------------------------------------------
    E--------------------------------------------------------------
                           |      Ritmo: Balada (1a Forma)
    E--------------------- |--▲--|--▲--▲--
    B---------7----------- |--|--|--|--|--  Rasgueo hacia abajo,
    G--9--7-9----9--7----- |--|--|--|--|--  arriba, abajo, abajo.
    D--------------------- |--|--|--|--|--  Si gustas lo puedes con-
    A--------------------- |--|--|--|--|--  sultar en el glosario de
    E--------------------- |--|--▼--|--|--  ritmos de lacuerda.net
    
  • He aqui el solo final de una de las
    mayores balladas españolas del rock
    
    Es despues de la última copla y el riff.
    Conste que la guitarra tien que ser
    bien larga,evitad una acústica:
    (la d significa que hay que derrapar el
    dedo por la cuerda desde un traste
    hasta el otro mientras suena)
    
    e-12d14--12d14-14-14-14-12----12-14---12--12
    B--------------------------15-----------15--
    G-------------------------------------------
    D-------------------------------------------
    A-------------------------------------------
    E-------------------------------------------
    
    e-14-12-------------------------------------
    B-------15-14-15-12---------12-12-----12----
    G------------------14--11-14--------14------
    D-------------------------------------------
    A-------------------------------------------
    E-------------------------------------------
    
    e----------------------17d19-----17d19------
    B--12-------------------------19--------19--
    G14--14-11-14-11---11-----------------------
    D----------------14-------------
  • +
    ¡Colabora con nosotros!
    Envíanos tu versión de esta canción
  • Tutorial
    HD
    Cómo tocar La senda del tiempo de Celtas Cortos en el bajo
    6:17
  • Tutorial
    HD
    Aprende a tocar La senda del tiempo de Celtas Cortos en la guitarra
    16:59

Letra de La Senda del Tiempo
The song:
MAIN RIFF
A veces llega un momento en que
te haces viejo de repente
sin arrugas en la frente
pero con ganas de morir
Paseando por las calles
todo tiene igual color
siento que algo hecho en falta
no se si sera el amor
Me despierto por las noches
entre una gran confusion
esta gran melancolia
esta acabando conmigo
Siento que me vuelvo loco
me sumerjo en el alcohol
las estrellas por la noche
han perdido su esplendor
MAIN RIFF
He buscado en los desiertos
de la tierra del dolor
y no he hallado mas respuesta
que espejismos de ilusion
He hablado con las montanas
de la desesperacion
y su respuesta era solo
el eco sordo de mi voz
MAIN RIFF (TWO TIMES)




[La Senda del Tiempo chords][La Senda del Tiempo cifra]
© LaCuerda.net · aviso legal · privacidad · es · en · pt · contacto