Acordes de Guitarra » C »Celine Dion » Mi corazón seguirá adelante (Tab)

Mi corazón seguirá adelante
Celine Dion

Letras, Acordes y Tabs para Guitarra, Bajo y Ukulele

  • Intro:  G -  D  -  C  - D  -  G  -   D -   C  -  D
    G           D
    CADA NOCHE EN SUEÑOS
        C   D
    TE VEO, TE SIENTO
     G          D
    ASI ES COMO TE MIRO,
    C    D
    SEGUIR.
    
    G           D
    CRUZANDO LA DISTANCIA
           C     D
    Y ESPACIOS, IGUAL QUE YO
     G           D
    TU VIENES   A   VERME
    C    D
    SEGUIR.
    
     Em      D
    
  • este tema es muy facil..toquenlo asi y escuchenlo..suerte
    
    Intro
    
    E-------4-----------7----5-4-0-------------4--------7--
    B---5-7-------7-5-7------------2---0---5-7----7-5-7----
    G--------------------------------2---------------------
    D------------------------------------------------------
    A------------------------------------------------------
    E------------------------------------------------------
    
    E-----7-9----7-----2--
    B---9-----------------
    G---------------------
    D---------------------
    A---------------------
    E---------------------
    
    E-------4----------7-----5-4-0-------------4----------7-
    B---5-7------7-5-7-------------2---0---5-7------7-5-7---
    G--------------------------------2----------------------
    D-------------------------------------------------------
    A-------------------------------------------------------
    E-------------------------------------------------------
    
    E------------------2----4--
    B-------2-4---5------------
    G-----4--------------------
    D---6----------------------
    A--
  • es lo que yo saque espero les guste
    
    1.------------7--7----8-7----------10-10--8--7---------------
    2.-8--10--10--------------10-8-10---------------8------------
    3.----------------------------------------------------5--7---
    4.-----------------------------------------------------------
    5.-----------------------------------------------------------
    6.-----------------------------------------------------------
    
    1.------------7--7----8-7----------10-10--8--10--12--10-------
    2.-8--10--10--------------10-8-10------------------------8----
    3.------------------------------------------------------------
    4.------------------------------------------------------------
    5.------------------------------------------------------------
    6.------------------------------------------------------------
    
    
    1.----------------------------------------------------------------
    2.-8---8--8--7--8---8--7--8---10--12--10--8---8--8--7--8----------
    3.---------------------------------------------------------5--7---
    4.-------
  • e-----0-----0h1-0-------|--3--1-0--------------------|
    B-1h3---1---------3-1-3-|-----------1--------------0-|
    G--------2--------------|-------------2----------0---|
    D-----------------------|---------------3------------|
    A-----0-----------------|----------------------------|
    E-----------------------|--3--------1--------3-------|
    
    e-----0-----0h1-0-------|--3--0-3--5--3--------|-5-7-8--7-3-0--1-3-5
    B-1h3---1---------3-1-3-|----------------------|--------------------
    G--------2--------------|-----------------5h0h5|--------------------
    D-----------------------|----------------------|--------------------
    A-----0-----------------|----------------------|--------------------
    E-----------------------|--3-------1--1--3-----|-3-3-5------3------1
    
    -3-0------|-----0-1-0-----0----------|
    -----3----|-1-3-------3-1---3----1-1-|
    ----------|--------------------------|
    ----------|--------------------------|
    ----------|--------------------------|
    -1-0-3----|-----------------3----3-3-|
    
  • 7777(7)7
    
    7(7)7
    
    (8)8(8)
    
    7777(7)7
    
    (8)67777(7)7
    
    7(7)7
    
    (8)8(8)
    
    7777(7)7
    
    (8)6
    
    ºESTRIBILLOº
    
    7 (8) 6 9(9)8 (8)
    
    8 (9) 8 (8)7 (7) 7 7(7)
    
    (8) 8 (8) 77
    
    OJALA LES SIRVA///
  • +
    ¡Colabora con nosotros!
    Envíanos tu versión de esta canción

Letra de Mi corazón seguirá adelante
CADA NOCHE EN SUEÑOS
TE VEO, TE SIENTO
ASI ES COMO TE MIRO,
SEGUIR.
CRUZANDO LA DISTANCIA
Y ESPACIOS, IGUAL QUE YO
TU VIENES A VERME
SEGUIR.
CERCA , LEJOS,
ESTES DONDE ESTES,
MI CORAZON SIEMPRE TE
SEGUIRA - A - A
Y VENDRAS
LA PUERTA ABRIRAS
ESTAS AQUÍ EN MI PECHO
Y MI CORAZON TE SEGUI-IRÁ-A
EL AMOR TOCO UNA VEZ
UNA VEZ Y NUNCA MAS,
Y NOS HIZO UNO
HASTA EL FINAL.
Y EL AMOR ESTUVO
FUE CIERTO, FUE TAN REAL
QUE EN MI VIDA SIEMPRE
SIGUIO,
CERCA LEJOS,
ESTES DONDE ESTES,
MI CORAZON SIEMPRE TE SEGUIRA - A - A
Y VENDRAS
LA PUERTA ABRIRAS
ESTAS AQUÍ EN MI PECHO
Y MI CORAZON TE SEGUI-IRÁ-A
ESTAS AQUÍ,
NO TEMO POR FIN,
MI CORAZON SIEMPRE TE
SEGUIRA - A - A
Y SERAS,
POR SIEMPRE JAMAS,
YO TE GUARDE, EN MI PECHO
Y MI CORAZON TE SEGUI-IRÁ-A
Y SERAS,
POR SIEMPRE JAMAS,
YO TE GUARDE, EN MI PECHO
Y MI CORAZON TE SEGUI-IRÁ-A
Y MI CORAZON TE SEGUI-IRÁ-A
(Esta es Una Version Bastante facíl)
(espero que les sirva. Aristides)

Video de Mi corazón seguirá adelante
[]




[Mi corazón seguirá adelante chords][Mi corazón seguirá adelante cifra]
© LaCuerda.net · aviso legal · privacidad · es · en · pt · contacto