Acordes de Guitarra » C »Celine Dion » Titanic (Tab)

Titanic
Celine Dion

Letras, Acordes y Tabs para Guitarra, Bajo y Ukulele

  • E            B
    CADA NOCHE SUEÑO
        A       B
    CONTIGO, CONTIGO
     E           B
    SE QUE AUN EXISTES,
      A
    AMOR.
    
    E              B
    SIEMPRE EN LA DISTANCIA
        A     B
    PODREMOS AMARNOS
     E             B
    SIGUES EN MIS SUEÑOS
      A
    AMOR.
    
     C#m   B
    TÚ, YO,
    
  • Esta es una cancion que me gusta mucho
    espero la puedan sacar.
    Si tienen algun problema comuniquenmelo a mi correo.
    (gro.30.abril@hotmail.com)
    
    
    INTRO
    
    
    EI--3--5-5-7---5-3-5-10---8-7-3-------------|
    BI-------------------------------5-3--------|
    GI------------------------------------------|
    DI------------------------------------------|
    AI------------------------------------------|
    EI------------------------------------------|
    
    
    EI--3--5-5-7---8-7-5-3-5-10---7-10-12-10--5-|
    BI------------------------------------------|
    GI------------------------------------------|
    DI------------------------------------------|
    AI------------------------------------------|
    EI------------------------------------------|
    
    
    Estrofas
    
    
    EI--3-3-3-3-2-3--3-2-3--5-7-5---3-3-3-3-2-3-5-0---R--|
    BI------------------------------------------------E--|
    GI------------------------------------------------P--|
    DI------------------------------------------------I--|
    AI------------------------------------------------T--|
    EI---
  • ROBINSON CASTILLO
    
    Esta es una muy buena melodía y pz es arreglo propio.
    ay que educar ala competencia...
    NOTA: por si se les complica vean este link y dejen sus comentarios.
    
    http://www.facebook.com/pages/FREE-CONECTEDAGUATEMALA/209595852408676
    
    Gracias a Clarita, Jason, Byron, Pablo y Oliver. ¨FREE CONECT¨
    orgullosamente representando al Colegio Mixto Belèn
    
    CAPO EN EL 4TO TRASTE
    e-----0-----0h1-0-------|--3--1-0--------------------|
    B-1h3---1---------3-1-3-|-----------1--------------0-|
    G--------2--------------|-------------2----------0---|
    D-----------------------|---------------3------------|
    A-----0-----------------|----------------------------|
    E-----------------------|--3--------1--------3-------|
    
    e-----0-----0h1-0-------|--3--0-3--5--3--------|-5-7-8—-7-3-0--1-3-5
    B-1h3---1---------3-1-3-|----------------------|--------------------
    G--------2--------------|-----------------5h0h5|--------------------
    D-----------------------|----------------------|--------------------
    A--
  • HOLA!!! esta es mi primer canción que envio, es la cancion de titanic
    esta muy buena y facil de tocar,
    envien comentarios a mi correo aza_292@hotmail.com
    
    Se llama:
    MY HEARTH WILL GO ON (TITANIC)
    La afinación de las cuerdas es:  6 D - 5 A - 4 D - 3 G - 2 A - 1 D
    Lleva Capo en el tercer(3) trate
    Asi empieza:
    
    d|----------------|--5-----0-------7-----5h4--0------------
    A|----5h7-7h9-(9)-|----9------7----------------------------
    G|----------------|------9----6-------------------4-----2--
    D|----------------|-----------7----------------------------
    A|----------------|-----------0-------------------------0--
    D|--------0-------|---------------------------5------------
    
    d|----------------|--5-----0-------7----4-7-9----7--------
    A|----5h7-7h9-(9)-|----9------7----------------------7----
    G|----------------|------9----6----------------------6----
    D|----------------|-----------7----------------------7----
    A|----------------|-----------0----------------------0----
    D|--------0-------|-------------
  • Introducción:
    
    E-----------------------------------/
    B--------0-0-1-0-------3-3-0--------/
    G--0-2-2---------2-0-2-------2-0----/
    D--------------------------------2-0/
    A-----------------------------------/
    E-----------------------------------/
    
    
    E-----------------------------------/
    B--------0-0-1-0-------3-3-0-3-5-3--/
    G--0-2-2---------2-0-2-------------2/
    D-----------------------------------/
    A-----------------------------------/
    E-----------------------------------/
    
    Canción:
    
    E-------------------------/-----------------/
    B----------------------0--/-----------------/
    G--0-0-0-0---0-0---0-2---2/--0-0-0-0---0-0--/
    D----------4-----4--------/----------4-----0/
    A-------------------------/-----------------/
    E-------------------------/-----------------/
    
    
    E-----------------------------------/
    B--------3-1-0---0-1-0--------------/
    G--0-2---------2-------2-0---0------/
    D------0-------------------4---4-2-0/
    A-----------------------------------/
    E-----------------------------------/
    
    
    E-----
  • +
    ¡Colabora con nosotros!
    Envíanos tu versión de esta canción
  • Tutorial
    HD
    COMO TOCAR TITANIC EN GUITARRA ACÚSTICA FACIL / APRENDER CANCIONES FACILES EN GUITARRA 3/3 TCDG
    4:56
  • Tutorial
    HD
    Como Tocar Titanic En Guitarra Acústica / Tutorial fácil para principiantes por Mario Freiria TCDG
    14:14
  • Tutorial
    HD
    COMO TOCAR TITANIC EN GUITARRA ACÚSTICA FACIL / APRENDER CANCIONES FACILES EN GUITARRA 1/3 TCDG
    7:21
  • Tutorial
    HD
    COMO TOCAR TITANIC EN GUITARRA ACÚSTICA FACIL / APRENDER CANCIONES FACILES EN GUITARRA 2/3 TCDG
    2:50

Letra de Titanic
CADA NOCHE SUEÑO
CONTIGO, CONTIGO
SE QUE AUN EXISTES,
AMOR.
SIEMPRE EN LA DISTANCIA
PODREMOS AMARNOS
SIGUES EN MIS SUEÑOS
AMOR.
TÚ, YO,
ETERNA PASIÓN
SIEMPRE HABRA LA ESPERANZA
A-AMO-O-O-OR.
EN DONDE TU ESTES
YO TE LLEVO EN EL ALMA
MI ALMA TE SEGUI-IRÁ-A
EL AMOR NOS LLEGA
Y NUNCA NOS DEJA
SIGUES SIENDO LUZ
EN MI SER.
NO PODRE OLVIDARTE
DEJAR DE AMARTE
SIEMPRE EXTRAÑARÉ
TU QUERER.
TÚ, YO,
ETERNA PASIÓN
SIEMPRE HABRA LA ESPERANZA
A-AMO-O-O-OR.
EN DONDE TU ESTES
YO TE LLEVO EN EL ALMA
MI ALMA TE SEGUI-IRÁ-A.
AaaaMOR
NO SIENTO TEMOR
YO SE BIEN QUE EN MI ALMA
E-ESTÁ-A-A-A-AS.
TÚ, YO,
ETERNA CANCION
YO TE LLEVO EN EL ALMA
MI ALMA TE SEGUI-IRÁ-A
UH, UH UH UH
UH, UH UH uh

Video de Titanic
[]




[Titanic chords][Titanic cifra]
© LaCuerda.net · aviso legal · privacidad · es · en · pt · contacto