Acordes de Guitarra » C »Catupecu Machu » Preludio al filo en el umbral (Tab)

Preludio al filo en el umbral
Catupecu Machu

Letras, Acordes y Tabs para Guitarra, Bajo y Ukulele

  • INTRO
    e|--------------------------------|
    B|--------------------------------|
    G|-----4----6----------4----6-----|
    D|--6--4----4--5----6--4----4--5--|
    A|--6--2----4--5----6--2----4--5--|
    E|--4----------3----4----------3--|
    
    
    EN LOS PASAJES USEN ESTE RIFF LAS VECES
    QUE SEA NECESARIO
    e|------4------4--4--------4------4-4--|
    B|------4------4--4--------4------4-4--|
    G|------5------5--5--------5------5-5--|
    D|--6-6-6--6-6-6--6----6-6-6--6-6-6-6--|
    A|--6-6-6--6-6-6--6----6-6-6--6-6-6-6--|
    E|--4-4-4--4-4-4--4----4-4-4--4-4-4-4--|
    
    
      'BAILAS EN MEDIO DE SERES EXTRAÑOS...' (NO SE TOCA NADA)
    e|---------------------------------------------------------|
    B|---------------------------------------------------------|
    G|---------------------------------------------------------|
    D|---------------------------------------------------------|
    A|---------------------------------------------------------|
    E|---------------------------------------------------------|
    
    
                  
  • +
    ¡Colabora con nosotros!
    Envíanos tu versión de esta canción






[Preludio al filo en el umbral chords][Preludio al filo en el umbral cifra]
© LaCuerda.net · aviso legal · privacidad · es · en · pt · contacto
DINAMICO