Acordes de Guitarra » C »El Canto del Loco » Ya nada volverá a ser como antes (Tab)

Ya nada volverá a ser como antes
El Canto del Loco

Letras, Acordes y Tabs para Guitarra, Bajo y Ukulele

  • INTRO:  SOL #M   RE #M   DO #M  SOL #M   
    
    SOL #M                   RE #M
    Hoy, quiero ir a encontrar
    DO #M                    SOL #M
    Todo lo que hay dentro d mi
    DO #M RE #M     SOL #M        DO #M           
    Sacar, toda esa sensibilidad
           X           SOL #M
    Que me acerca a ti
           RE #M      SOL #M
    Que me lleve allí 
    
    
    FA
    Y a pesar d todo
          LA #m
    Me pregunto quiero ir
    FA                    LA #m                    RE #M
    Y al vivir m oculto mis defectos para poder dormir
    
  • Intro  A Asus2 Asus4 Asus2 A
    
    A                      E
    Hoy quiero ir a encontrar
    D  Asus4 D                      A  Asus4  A
    Todo      lo que hay dentro de mi;
     D     E        Em        A  Asus4 D Asus4
    Sacar toda esa sensibilidad
                     A    E             A   Asus4  A
    Que me acerque a ti, que me lleve allí.
    
    
    Asus4
    Y a pesar de todo
           Am
    Me pregunto qué no di,
    Asus4
    Y al vivir me oculto
           Bm         E
    Mis defectos para poder dormiiir.
    
  •  A                     E
    Hoy quiero ir a encontrar
     D                         A
    Todo lo que hay dentro de mí
       D   E          A        D
    Sacar   toda esa sensibilidad
                      A
    Que me acerque a ti
    E                A
     Que me lleve allí.
    
    F#m
    Y a pesar de todo
           Bm
    Me pregunto ¿qué no di?
    F#
    Y al vivir me oculto
          Bm            E
    Mis defectos para poder dormir
    
    
  •  SOL# M                              RE #M
     Hoy            Quiero ir a encontrar
    e|-------------------------------------------|
    b|------1--------1---------------------------|
    g|---1-----1--------1-------0------3---1--0--|
    d|-------------------------------------------|
    a|-------------------------------------------|
    E|-------------------------------------------|
    
    DO #M                                SOL# M
    Todo            Lo que hay dentro de mi
    e|------1--------1---------------------------|
    b|---2-----2--------2--------------1---2--1--|
    g|--------------------------1----------------|
    d|-------------------------------------------|
    a|-------------------------------------------|
    E|-------------------------------------------|
    
    DO #M       RE #M                 SOL #M        DO #M
    Sacar           Toda esa          sensibilidad
    
  • Verso (Hoy quiero ir a encontrar...)
    
    G ------------------------------|--------------------------
    A -----------------------3-333--|--------------------------
    D 5-555----------2-222----------|--------------------------
    E -------5-555------------------|--------------------------
    						X6
    Puente (Y a pesar de todo...) 
    
              Variación al final de la sexta
    G --------|-----------------------------|------------------
    A 4-------|----------4444444---3333333--|------------------
    D –5-555--|-5555555---------------------|------------------
    E --------|-----------------------------|------------------
    	     X6						x1
    
    Coro (Ya nada volverá a ser como antes...)
    
    G ------------------------------------------|--------------
    A ------------------------------------------|--------------
    D 5-5----5-5----5-5----5-5----5-5----5-5----|--------------
    E ---3-4----3-4----3-4----7-6----7-6----7-6-|--------------
    								   X1
    
    Verso (Tras una sombra gris...)
    
    G -------------------
  • Esta es la primer tablatura que envio, la cancion esta muy sencilla
    pero se presta para que ustedes le pongan los arreglos que quieran.
    Si hay algun error haganmelo saber.
    
    La simbologia es asi:
    Primera linea:
    W=crash
    x=hi-hat entreabiertos (asi se tocan toda la cancion)
    r=ride
    Segunda linea:
    o=tarola
    t=tom 1
    f=flam en tarola
    Cuarta linea
    o=bombo
    --------W-x-x-x--x-x-x-x--x-x-x-x--x-x-x-x--x-x-x-x--x-x-x-x--
    ooooo-o---o---o----o---o----o---o----o---o----o---o----o---o--
    --------------------------------------------------------------
    --------o--oo----o--oo----o--oo----o--oo----o--oo----o--oo----
    
    x-x-x-x--x-x-x-x--W-x-x-x--x-x-x-x--x-x-x-x--x-x-x-x--W------
    --o---o----o---o----o---o----o---o----o---o----o---o-t------o
    -------------------------------------------------------------
    o--oo----o--oo----o--oo----o--oo----o--oo----o--oo----o------
    
    W-x-x-x--x-x-x-x--x-x-x-x--x-x-x-x--Wxxx-xxxx--xxxx-xxxx--xxxx-xxxx
    --o---o----o---o----o---o----o---o----o----o-----o----o-----o----o-
    -------------
  • +
    ¡Colabora con nosotros!
    Envíanos tu versión de esta canción

Letra de Ya nada volverá a ser como antes
Hoy, quiero ir a encontrar
Todo lo que hay dentro d mi
Sacar, toda esa sensibilidad
Que me acerca a ti
Que me lleve allí
Y a pesar d todo
Me pregunto quiero ir
Y al vivir m oculto mis defectos para poder dormir
YA NADA VOLVERA A SER COMO ANTES
NUNCA DEJARE QUE NADA ME CAMBIE
ESTAREMOS CONOCIENDO NUESTRA PARTE ORIGINAL
YA NUNCA VOLVERA A SER COMO ANTES
NUNCA DEJARE QUE NADA ME CAMBIE
ESTAREMOS CONOCIENDO NUESTRA PARTE DE VERDAD
Tras, una sombra gris
Que, no me deja ver
Podré esperar q pase algo hoy
Con lo que tengo aquí
Y no quiere salir
Y a pesar d todo
Me pregunto quiero ir
Y al vivir m oculto mis defectos para poder dormir
YA NADA VOLVERA A SER COMO ANTES
NUNCA DEJARE QUE NADA ME CAMBIE
ESTAREMOS CONOCIENDO NUESTRA PARTE ORIGINAL
YA NUNCA VOLVERA A SER COMO ANTES
NUNCA DEJARE QUE NADA ME CAMBIE
ESTAREMOS CONOCIENDO NUESTRA PARTE DE VERDAD
ESTAREMOS CONOCIENDO NUESTRA PARTE ORIGINAL
Esta es a primera transcripcion que hago
en atame aunq llevo mucho tiempo utilizando

la pagina.Solo queria decir q esta es un kncion

preciosa q merece la pena!!




[Ya nada volverá a ser como antes chords][Ya nada volverá a ser como antes cifra]
© LaCuerda.net · aviso legal · privacidad · es · en · pt · contacto