Acordes de Guitarra » C »Callejeros » Palo borracho (Tab)

Palo borracho
Callejeros

Letras, Acordes y Tabs para Guitarra, Bajo y Ukulele

  • INTRO: MI-SI-LA-MI-SI
    
     MI
    Y es que pasa noches
           SI
    que da pena,
    LA      MI            SI
    verse tirado en un rincón.
    
    Si uno visita seguido al piso,
    nunca sentirá que es 'lo mejor'.
    
    MI        LA            SI
    Vivir quebrando entre 'vivos',
    MI       LA         SI
    nunca arañar lo 'mejor'...
    
    LA
    Si tenes conciencia
       FA#m
    
  • INTRO: MI-SI-LA-MI-SI x2
    
    e|----------------------------------------------------------------------------------|
    B|-----9--------9-----------7-7-----------4----------------------(12)---------------|
    G|-(9)---9--(9)---9-------------9-8---------5--5/9-999-8-6-------(11)-11-11-13-11-9-|
    D|-(9)----9-(9)----9--(9)-------------(7)---------------------(9)-------------------| x2
    A|-(7)------(7)-------(9)-9-----------(7)-------------------------------------------|
    E|--------------------(7)-------------(5)-------------------------------------------|
    
    
    
    INTRO: MI-SI-LA-MI-SI
    
    
    e|--------------------------------------------------------|
    B|-----9--------9-----------7-7----------------------7-7--|
    G|-(9)---9-(9)---9----------------------(9)--------8------|
    D|-(9)-----(9)-----(9)-------------(7)--(9)---(9)---------|
    A|-(7)-----(7)-----(9)-9-----------(7)--(7)---(9)---------|
    E|-----------------(7)-------------(5)--------(7)---------|
    
  • INTROO!!!
    
    e|------------------------------------------------------------------|
    B|-9-9/10--9-9/10-/-4-5-7-7-5-4-/-2-3-2-3/5-5-4---4-5/--7-7/9-7-5---|
    G|-9-------9--------4-------------2-------------6-4-----------------|
    D|------------------------------------------------------------------|
    A|------------------------------------------------------------------|
    E|------------------------------------------------------------------|
    
    e|--------------------------------------------------------------------|
    B|-9-9/10--9-12-10-9/-4-5-7-7-5-4-/-2-3-2-3/5-5-4---4-5/--7-7/9-7-5---|
    G|-9-------9--------4-------------2-------------6-4-------------------|
    D|--------------------------------------------------------------------|
    A|--------------------------------------------------------------------|
    E|--------------------------------------------------------------------|
    
    
    los acordes son E - B - A - B.
    
    
    Haganla que es facil. toquen a ritmo arriva del tema, y despues solos!
    un abrazo aguante CALLEJEROS.
  • Esta es una propia corrección del tema. Le hice algunas modificaciones.
    Ahora esta joya.
    
    INTRO
    G|----------------------------|-----------------------------------------
    D|----9-7-6-------------------|-----9-7-6-------------------------------
    A|-------------6-7-9--0-7-----|--7x-----------6-7-9—0x-7x---------------
    E|--0--------7------------7-7-|-----------7-7--------------7x-----------
    
    VERSO
    G|-------------------------------------8h9-9-8-6------------------------
    D|-----9-7-6------------------------------------------------------------
    A|--7x------------6-7-9-7-6—0x-7x---------------------------------------
    E|------------7-7------------------7x-----------------------------------
    
    G|-------------------------------------9-8-6----------------------------
    D|-----9-7-6---------------------------------9--------------------------
    A|--7x------------6-7-9-7-6—0x-7x---------------------------------------
    E|------------7-7------------------7x----------------------------------
  • +
    ¡Colabora con nosotros!
    Envíanos tu versión de esta canción

Letra de Palo borracho
Y es que pasa noches
que da pena,
verse tirado en un rincón.
Si uno visita seguido al piso,
nunca sentirá que es 'lo mejor'.
Vivir quebrando entre 'vivos',
nunca arañar lo 'mejor'...
Si tenes conciencia
mediando la inconciencia,
tu diablo de la guarda no falló.
Seguir jugando a caminar,
con la brea de algún callejón,
ir mirando fijo bien al piso,
para rescatarse en la ocasión.
Vivir quebrando entre 'vivos',
nunca arañar lo 'mejor'...
mediando la inconciencia,
tu diablo de la guarda no falló.
Vivir quebrando entre 'vivos',
nunca arañar lo 'mejor'...
mediando la inconciencia,
tu diablo de la guarda no falló.
Y es que siempre caigo
por lo mismo,
pero hoy me ensaño en perdedor,
cuando el sol ya me daba
en la cara, (otra vez),
el vicio que ahoga amotinó.
Vivir quebrando entre 'vivos',
(NOTAS QUE HACE EL BAJO: FA#-MI-DO#)
nunca arañar lo 'mejor'...
mediando la inconciencia,
tu diablo de la guarda no falló. (X2)
Tu diablo de la guarda no falló (X2)
Cuerda 6--5/12 (al final arrastra desde el traste 5 de la cuerda 6
hasta el traste 12 de la misma)
*Fíjense bien el los tiempos del tema sobre todo en las estrofas del
principio, porque hay partes que cambia más rápido. Espero que les
servido. Cualquier cosa escríbanme al mail. Suerte...*
Cualquier duda o consulta escriban a alan_heroico@yahoo.com.ar o a
faqueipo@sinectis.com.ar Pueden pedir otras tablaturas de otros grupos
del estilo.




[Palo borracho chords][Palo borracho cifra]
© LaCuerda.net · aviso legal · privacidad · es · en · pt · contacto