Acordes de Guitarra » C »Callejeros » Límites (Tab)

Límites
Callejeros

Letras, Notas, Punteos, Tablaturas y Acordes de Guitarra (Tabs & Chords)

  • Tablatura
    e|-----------------------------------------------------
    B|-----------------------------------------------------
    G|-----------------------------------------------------
    D|------------------5-6-7------------------------5-6-7-
    A|--5-7-8-7-5--5-6-7-------------5-7-8-7-5--5-6-7------
    E|-5----------------------3-4-5-5----------------------
    
    
    e|--------------------------------------------
    B|--------------------------------------------
    G|--------------------------------------------
    D|--------------------------------------------
    A|--------------------------------------------
    E|-3-4-5-4--3-5-6-8-10-8-6-8--1-3-5-6-8-6-5-6-
    
        A#   A            Dm
    e|-6-6--5-5-------------|
    B|-6-6--5-5--8-55-6-5-3-|
    G|-7-7--6-6-------------|
    D|-8-8--7-7-------------|
    
  • +
    ¡Colabora con nosotros!
    Envíanos tu versión de esta canción

Letra de Límites
[VERSO]
Entre "canciones de duda" y la calle hambrienta
por ese limite la vida siempre irá
y viendo como mi cordura y locura se enfrentan sin cesar
hacia algun lado, algun dia esta vida se inclinara
Entre lo que te toca y lo que te dejen hacer
por ese limite, la vida siempre irá
La boca de una mujer ajena, matarte o salir a matar,
ser pobre, ser rico, crecer en la calle o crecer para el vicio
es que muchos se van cayendo sin caminar
[ESTRIBILLO]
El silencio del campo, o el ruido de la ciudad
no van a bastar para que encuentres
todo aquello lo que necesitas
Hay muchos limites alla afuera
y hay otros, mucho peores
en lo mas hondo de tu verdad
[VERSO]
Cuanta gilada mas va a ensuciar tu alma?
helada y en llamas, tu cuerda se va a cortar
no existe ningun purgatorio las cuentas las vas a rendir aca
ya no habra nada mas que tu cara
y el ultimo limite para cruzar
cuanta gilada mas?
[ESTRIBILLO]
El silencio del campo,o el ruido de la ciudad,
no van a bastar para que encuentres
todo aquello lo que necesitás.
Hay muchos límites allá afuera
y hay otros, mucho peores
en lo mas hondo de tu verdad
Bien, lindo tanguito, fijensen bien los tiempos tanto dl solo
como dl acompañamiento y la intro q eso es lo complicado y
obviamente tokenlo bien a lo tango argento ;-)
cualkier cosa mandan mail a lalos_boca20@hotmail.com
Aguante el Rock n' roll y nada mas,
es algo que los chetos no pueden entender!



© LaCuerda.net · Aviso Legal · Privacidad