Acordes de Guitarra » C »Callejeros » Frente al río (Tab)

Frente al río
Callejeros

  • Letra y Acordes
    E||--------------------------|-----------------------|
    B||--------------------------|-----------------------|
    G||--------------------------|-----------------------|
    D||--5-----------------------|--5-----5h7--5---------|
    A||-----8--7--5--3--3--5--7--|-----------------------|
    E||--------------------------|-----------------------|
    
    
    
    --------------------------|-----------------------|
    --------------------------|-----------------------|
    --5--4--------------------|-----------------------|
    --------7--5--------------|--3-----3h5--3---------|
    --------------8--7--5--3--|-----------------------|
    --------------------------|-----------------------|
    
    
    
    --------------------------|---------------------||
    --------------------------|--------5------------||
    
  • Letra y Acordes
    LAm-REm (x3) - SOL
    
    LAm                           SOL
    Paso noches hablando de vos,
                  FA       MI       LAm
    este es mi insólito monólogo de hoy.
    LAm
    Me cuelgo y me empiezo
            SOL
    a preguntar,
    FA                 MI
    si tu Quilmes jugará
               LAm
    en el más allá.
    
    DO
    Lo enciendo frente al Río
           SOL
    de La Plata sin dudar
              Em
    
  • Tablatura
    e|-------------------------|-----------------------------|
    B|-------------------------|-----------------------------|
    G|-------------------------|-----------------------------|
    D|--5-3-2---------2-5-7b5--|--10-9-7---------------------|
    A|--------5-3-3-5----------|---------10-8-7------8-10b8--|
    E|-------------------------|----------------10-8---------|
    
    e|-------------------------|
    B|-------------------------|
    G|------4-5-7-5-4-5-7-9b7--|
    D|--5-7--------------------|
    A|-------------------------|
    E|-------------------------|
    
    
    
    e|------------------------------|
    B|------------------------------|
    G|-14-14---12-12---10~~10---12--|
    D|-14-14---12-12---10~~10---12--|
    
  • Tablatura
    e|-----------------------------
    B|-----------------------------
    G|-----------------------------
    D|-5-3-------------5--5/7-5----
    A|-----7-5-33--3-5-------------
    E|-----------------------------
    
    e|------------------------------
    B|------------------------------
    G|-/5-4-------------------------
    D|------7-5-3-2-0---3--3/5-3----
    A|----------------3-------------
    E|------------------------------
    
    e|-----------------------------
    B|-----------------------------
    G|-----4-5-5/7-5-4-5-7--7/9-7--
    D|-5-7-------------------------
    A|-----------------------------
    E|-----------------------------
    
  • Tab p/Bajo
    Esta parte entra en 0:09 despues de la viola
    -----4-5-7-5-4-5-7-9-7-/
    -5-7-------------------/
    -----------------------/
    -----------------------/
    Despues esto entra con la Bateria en el 0:14
    ---------/
    ---------/
    ---------/
    -5-3-1---/
    En el 0:19... aca hay un compas de 2/4
    ---------/
    ---------/
    ---------/
    ----3----/
    La INTRO va en el 0:20... esta es la parte interesante
    de la cancion jeje. Aca combiene escuchar bien el
    bajo... se escucha bastante lo q hace Dios
    -------------------------------------/
    -------------------------------------/
    ------3-5-55-3------3-55-3------3-55-/
    -5-55----------5-55--------5-55------/
    Para terminar la intro hace este en el 0:27
    -------------------/
    -------------------/
    -------------------/
    -3-33--3-33--------/
    El VERSO va en el 0:32... aunque capaz parezca dificil, lo q
    hay q hacer es escuchar el tema... si escuchan bien seguro lo
    sacan enseguida
    ------------------------------/
    ------------------------------/  SE REPITE EN EL 0:41
    --------765-55-5--3-2-----
  • +
    ¡Colabora con nosotros!
    Envíanos tu versión de esta canción

Letra de Frente al río
Paso noches hablando de vos,
este es mi insólito monólogo de hoy.
Me cuelgo y me empiezo
a preguntar,
si tu Quilmes jugará
en el más allá.
Lo enciendo frente al Río
de La Plata sin dudar
(con más ganas de creer
que de pensar),
porque tus sueños como el viento
vuelven desde tu ciudad
para darle a lo que siento
algún lugar en tu eternidad.
Las estrellas se apagaron en el Sur:
subiste y sólo
brilla tu luz.
Tan hermosa, como Janis
y su blues,
hoy no te tengo
y solo cargo con mi cruz.
Lo enciendo frente al Río
de La Plata sin dudar
(con más ganas de creer
que de pensar),
porque tus sueños como el viento
vuelven desde tu ciudad
para darle a lo que siento
algún lugar en tu eternidad.
Estas historias
nunca tienen fin
y más si en este tema
hablo de mí.
Los recuerdos
calientan mi interior
y más si en este tema
hablo de vos.
Lo enciendo frente al Río
de La Plata sin dudar
(con más ganas de creer
que de pensar),
porque tus sueños como el viento
vuelven desde tu ciudad
para darle a lo que siento
algún lugar en tu eternidad.
Mil canciones
y una más voy a
escribir.
Y en mil silencios
sólo un nombre
voy a oír.
Un “Capitán” en la estación
para subir:
a tu espacio en algún tren
me voy a ir.
Lo enciendo frente al Río
de La Plata sin dudar
(con más ganas de creer
que de pensar),
porque tus sueños como el viento
vuelven desde tu ciudad
para darle a lo que siento
algún lugar en tu eternidad.
Re* (suena mejor asi)
||||0| 3
||0|||
00||||



© LaCuerda.net · aviso legal · privacidad · contacto