Acordes de Guitarra » C »Café Tacuba » Una mañana (Tab)

Una mañana
Café Tacuba

  • Letra y Acordes
         Am11     Abm7(-5)    Gm       C9
    e|--------------------------------------------|
    B|-------3-------3----------3---------3-------|
    G|-------5-------5----------3---------3-------|
    D|----5-------4------4---3-----3---2-----2-3--|
    A|---------------------------------3----------|
    E|----5-------4----------3--------------------|
    
    Fig. 2
        Cm11   Bm7(-5)    Bbmaj7      Bbmaj13
    e|--------------------------------------------|
    B|-----6------6----------6----------6---------|
    G|-----8------8----------7----------5---------|
    D|--8------7-----7---7-------7---5-----7-8----|
    A|--------------------------------------------|
    E|--8------7---------6-----------6------------|
    
    
          Fig.1
    Una mañana
    
  • Letra y Acordes
      Cm7  1 2     3
    e|-------------------|
    B|-------------------|
    G|-------3---3-------|
    D|---5-4---3---2-3-5-|
    A|-3-----------------|
    E|-------------------|
           Cm7 1 2 3
    Una mañana
           Cm7  1   2 3
    una mañana linda
           Cm7 F7 A#7     D#
    tu corazon como una flor
               Am D7 Gm7
    a mi se entregara.
           Cm7 1 2 3
    Una mañana
           Cm7  1   2 3
    una mañana linda
           Cm7 F7 A#7     D#
    
  • Tablatura
    Una Mañana (Piano Solo)
    
    Como vi que en ningun lado estaba este solo me lo tuve que rifar
    yo ahi les va
    
    -----------------------------------------------
    -7-7-5-7---5-7-8-7-5---7-7-5-7---5-7-8-7-5/10--
    -----------------------------------------------
    -----------------------------------------------
    -----------------------------------------------
    -----------------------------------------------
    
    
    ---------------------------------------------------------
    -10------------------------------------------------------
    ----10-----------------------------7-5-7-8-7-8-9-11---12-
    -------12----------------12----12-----------------------
    ----------1210-10-10-12----11---------------------------
    ---------------------------------------------------------
    
    
      (Fast Pick)
    ---------------------------------------------------------
    --------------------------------------15-----------------
    -(12-12-12-12)--12-14-15-14-12-12/14------17-15-14-13-12-
    ---------------------------------------------------------
    ----------
  • Tab p/Bajo
    verso
    G-------------------|
    D-----------5-5-----|
    A-------5-5-----5-3-|
    E-0-2-3-------------|
    
    verso
    G-------------------|
    D-----------5-5-----|
    A-------5-5-----5-3-|
    E-0-2-3-------------|
    
    verso
    G--------------------------------------|
    D------3-3---------------------5-5-----|
    A---3----------6-6---------5-5-----5-3-|
    E-3--------6-6-----0-3-4-5-------------|
    
    coro
    G-----------------|--------------|
    D-------2-3--3--3-|--------------|
    A---3-3-----3--3--|-----5-6--6-6-|
    E-3---------------|-6-6-----6-6--|
    
    G------------------------------7-----|
    D------2-3-|-2---------------7-------|
    A--3-3-----|---5-4-2-----4-5---------|
    E--------------------5-4-------------|
    
    verso
    G-------------------|-------------------|
    D-----------5-5-----|-----------5-5-----|
    A-------5-5-----5-3-|-------5-5-----5-3-|
    E-----3-------------|-0-2-3-------------|
    
    G--------------------------------------|
    D------3-3---------------------5-5-----|
    A---3----------6-6---------5-5-----5-3-|
    E-3--------6-6-----0-3-4-5------------
  • +
    ¡Colabora con nosotros!
    Envíanos tu versión de esta canción

Letra de Una mañana
Cm7 1 2 3
Una mañana
una mañana linda
tu corazon como una flor
a mi se entregara.
Cm7 1 2 3
Una mañana
una mañana linda
mi corazon como una flor
a ti se entregara.
Linda sera
cuando me digas creo en tu amor
me digas que no sientes temor
y cuando salga el sol sera.
Una mañana
una mañana linda
como la flor, como el amor
que siempre te dare.
Linada sera... (se repite)

EADGBe
1: xx4545
2: xxx333
3: xx2333
* : x5656x



© LaCuerda.net · aviso legal · privacidad · contacto