Acordes de Guitarra » C »Café Tacuba » No me comprendes (Tab)

No me comprendes
Café Tacuba

  • Letra y Acordes
             Dm             F
    Me dices loco porque me río
             G              Am
    cuando debiera tal vez llorar
             Dm             F
    me dices loco porque he llorado
             G            Am
    cuando era todo felicidad
             Dm             F
    No me comprendes me dices loco
              G             Am
    Sólo te inspiro curiosidad.
            Dm                 F
    Y si supieras que hay una inmensa
              G              Am
    Sed de ternura dentro de mí,
              Dm                  F
    Si comprendieras que hay un secreto
                   G
    Que a nadie he dicho
    
  • Tablatura
    Basicamente la cancion esta compuesta de estos 3 punteos.
    Esta transcripcion la hizo mi hermano Yvan.
    
    
    
    punteo A:
    e--------------------------------------------------------
    b--------------------------------------------------------
    g--------------------------------------------------------
    d---(6)--------------------------------------------------
    a-----------4-----2-------4--6---------4-----2-----------
    e---------------4----4---------------------4----4--------
    
    G#m : xx6444
    
    punteo B:
    e---------------------------------------------------------
    b---------------------------------------------------------
    g-----------6----------------------6----------------------
    d---6--8-6-------8--6--4---6--8-6-------------------------
    a---------------------------------------------------------
    e---------------------------------------------------------
    
    e---4--6-6--9----6--4--2---4--6-4--9----------------------
    b---------------------------------------------------------
    g-----------6----------------------6---
  • +
    ¡Colabora con nosotros!
    Envíanos tu versión de esta canción

Letra de No me comprendes
Me dices loco porque me río
cuando debiera tal vez llorar
me dices loco porque he llorado
cuando era todo felicidad
No me comprendes me dices loco
Sólo te inspiro curiosidad.
Y si supieras que hay una inmensa
Sed de ternura dentro de mí,
Si comprendieras que hay un secreto
Que a nadie he dicho
porque yo a nadie le hablo de ti
Si tu supieras y comprendieras,
Pero tú nunca comprenderás
Que mi secreto ni tú ni nadie
Ha de saberlo nunca jamás
Me dices loco porque me río
cuando debiera tal vez llorar
me dices loco porque he llorado
cuando era todo felicidad



© LaCuerda.net · aviso legal · privacidad · contacto
DINAMICO