Acordes de Guitarra » C »Café Tacuba » Cuéntame (Tab)

Cuéntame
Café Tacuba

Letras, Acordes y Tabs para Guitarra, Bajo y Ukulele

  • INTRO:Am
    
    E----------------------------------------------
    A----0-------3--2--0-------3--2--0-------------
    D--------2----0--0--2----2--0--0--2------------
    G--------2---------------2---------------------
    B--------1---------------1---------------------
    E----------------------------------------------
    
    VERSO:   Am                                           Dm
    E---------------------------------------------------------------------------------
    A----0-------3--2--0-------3--2--0----3--2--0----3-2-0------------------------------------
    D--------2----0--0--2---2--0--0--2--2-0--0--2--2-0-0-2--0-------0-----------------------------
    G--------2--------------2-----------1----------1---------2-----2--2-----2----------------------
    B--------1--------------1-----------1----------1----------3---3----3---3-------------------------
    E-----------------------------------------------------------1--------1-----------------------
    
    
    Am (igual que en el intro)
    Cuéntame, cuéntame todo
    
  •     Fig. 1     LA
    e|-------------0------------------------------------------------
    B|----------1--1--------------------------------------------------
    G|-------2----------2--------------------------------------------
    D|----2---------------------------------------------------------
    A|-----------------------3----2----------------------------------
    E|-------------------------------------------------------------
    
    Fig. 1
    Cuéntame
    Cuéntame todo
    D                                       Fig. 1
    Cuéntame que has besado a otras antes que a mí
    D                                Fig. 1
    Cuéntame que has tenido amores sin fin
    Fig. 1
    Cuéntame
    Cuéntame todo
    D                                      Fig. 1
    Dime que solo soy otra en tu larga historia
    
  •      Am           Am
    |----0-0----------0-0-
    |----1-1----------1-1-
    |----2-2----------2-2-
    |----2-2----------2-2-
    |-0--------3-2-0------
    |---------------------
    
    Luego la cancion tiene los siguientes Acordes, aunque
    se escucha mejor arpegiada.
    
    fig. 1(x4)
    Cuentame, cuentame todo
    Dm            Dsus4 Dm               fig. 1 (x2)
    cuentame q has besado a otras antes q a mi
    Dm            Dsus4 Dm               fig. 1 (x2)
    cuentame q has tenido amores sin fin
    
    
    fig. 1(x4)
    
  •      Am
    |------0-0---------------0-
    |------1-1---------------1-
    |------2-2---2--2--------2-
    |----2---------------2-----
    |-0--------3--2----0-------
    |--------------------------
    
         Am
    |------0-0---------|------0-0--------------
    |------1-1---------|------1-1--------------
    |------2-2---2--2--|------2-2----2---2-----
    |----2-------------|----2------------------
    |-0--------3--2----|--0--------3---3----0--
    |------------------|-----------------------
    
         Am/1
    |------0-0------------
    |------1-1------------
    |------2-2---2--2-----  4  Veses
    
  • +
    ¡Colabora con nosotros!
    Envíanos tu versión de esta canción

Letra de Cuéntame
Am (igual que en el intro)
Cuéntame, cuéntame todo
Cuéntame que has besado a otras antes que a mí
Cuéntame que has tenido amores sin fin
Cuéntame, cuéntame todo
Dime que solo soy otra en tu larga historia
Historia que ahora resulta no tiene memoria
Prefiero el Dolor, a sufrir solo de imaginación
Prefiero morir, antes que saber por otros de ti
Cuéntame, cuéntame todo
Se que no he sido la única Eva en tu Edén
¿Dime en quien estas pensando ahora que te pregunte?
Prefiero el Dolor, a sufrir solo de imaginación
Prefiero morir, antes que saber por otros de ti
Así es que cuéntame, cuéntame todo
Cuéntame, cuéntame todo
Cuéntame, cuéntame todo
Cuéntame, cuéntame todo
Am (Igual que en el intro)
en el coro se usa un arpegio normal bajeo y las
tres primeras cuerdas hacia abajo




[Cuéntame chords][Cuéntame cifra]
© LaCuerda.net · aviso legal · privacidad · es · en · pt · contacto
DINAMICO