Acordes de Guitarra » C »Café Tacuba » Aunque no sea conmigo (Tab)

Aunque no sea conmigo
Café Tacuba

Letras, Acordes y Tabs para Guitarra, Bajo y Ukulele

  • Em
    A placer
    Am        B7                 Em
    puedes tomarte el tiempo necesario
    Am          D                   G
    que por mi parte yo estaré esperando
    C
    el día en que te decidas a volver
             Am             B7
    y ser feliz como antes fuimos
    
            Em
    Sé muy bien
    Am              B7               Em
    que como yo estarás sufriendo a diario
    Am           D                      G
    la soledad de dos amantes que al dejarse
    C                        Am
    están luchando cada quien
                   B7
    
  • F#m    Bm
    A placer
             E                F#m     Bm
    puedes tomarte el tiempo necesario
                E                   A
    que por mi parte yo estare esperando
                 D
    el dia en que te decidas a volver
             Bm                C#
    y ser feliz como antes fuimos
    
           F#m  Bm
    Se muy bien
             E                        F#m  Bm
    que como yo estaras sufriendo a diario
            E                          A
    la soledad de dos amantes que al dejarse
    D                   Bm
    estan luchando cada quien
                  C#m
    
  •       Bm   E7    A/Ab        Bm   E7    A
    e|-----------------------------------------0------
    B|-------3-3-3------2-2h3-2-----3-3-3-3-----2-----
    G|-------2-2-2-----1-------1----2-2-2-2---2--2----
    D|----------------2---------2------------2--------
    A|-0-1-2--2-----0--------------2---2----0---------
    E|------------------------------------------------
    
          Bm   E7    A/Ab        Bm      E7  F#m
    e|----------------------------------------2---2---
    B|-------3-3-3------2-2h3-2-----3----3-3--2----2--
    G|-------2-2-2-----1-------1----4----1-1--2-----2-
    D|----------------2---------2-------------4--4----
    A|-0-1-2--2-----0--------------2--2--2-2--4-4-----
    E|----------------------------------------2-------
    
          Bm   E7    A/Ab        Bm   E7    A
    e|-----------------------------------------0------
    B|-------3-3-3------2-2h3-2-----3-3-3-3-----2-----
    G|-------2-2-2-----1-------1----2-2-2-2---2--2----
    
  •       E7         Amaj7      E7            Bm
    e|------------------0-----|--------------------------
    B|-------3---3-------2----|---3---3-3----------------
    G|-------2---1-----1---1--|---2---2-2-----4-4-4------
    D|-----------2----2---2---|---------------4-4-4------
    A|-0-1-2---2----0-------0-|-2---2-2------------------
    E|------------------------|---------0-1-2------------
    
        F#       E7  Amaj7          E7              F#m
    e|-------|---------------0----|-----------------------
    B|-------|---3---2------2-2---|--3-3---3--------------
    G|-3-3-3-|--2---1------1---1--|--2-2---2--------------
    D|-4-4-4-|----2---2---2-------|-----------------------
    A|-------|0---------0-------0-|2-----2-0--------------
    E|-2-----|------0-------------|------------0-1-1/2----
    
                   E7         Amaj7           E7
    e|----2-----|--------------------------|--------------
    B|-----2----|--3-3-----3-----2-2n1---2-|----3-----3---
    G|--2---2---|--2-2-----1----1-------1--|----2-----2---
    
  • +
    ¡Colabora con nosotros!
    Envíanos tu versión de esta canción

Letra de Aunque no sea conmigo
A placer
puedes tomarte el tiempo necesario
que por mi parte yo estare esperando
el dia en que te decidas a volver
y ser feliz como antes fuimos
Se muy bien
que como yo estaras sufriendo a diario
la soledad de dos amantes que al dejarse
estan luchando cada quien
por no encontrarse
Y no es por eso
que haya dejado de quererte un solo dia
estoy contigo aunque estes lejos de mi vida
por tu felicidad
a costa de la mia
Pero si ahora tienes
tan solo la mitad
del gran amor que aun te tengo
puedes jurar que al que te quiere lo bendigo
quiero que seas feliz
aunque no sea conmigo
Y no es por eso
que haya dejado de quererte un solo dia
estoy contigo aunque estes lejos de mi vida
por tu felicidad
a costa de la mia
Pero si ahora tienes
tan solo la mitad
del gran amor que aun te tengo
puedes jurar que al que te quiere lo bendigo
quiero que seas feliz
aunque no sea conmigo




[Aunque no sea conmigo chords][Aunque no sea conmigo cifra]
© LaCuerda.net · aviso legal · privacidad · es · en · pt · contacto