Acordes de Guitarra » C »Cadaver Exquisito » Crippidiscopunk (Tab)

Crippidiscopunk
Cadaver Exquisito

Letras, Acordes y Tabs para Guitarra, Bajo y Ukulele

  • ---------------------------
    INTRO (RIFF)
    ---------------------------
    
    e|------------------------------------------|
    b|------------------------------------------|
    G|--------------9------------------9--------|
    D|---------9-11---9-11--------9-11---9-11---|
    A|---9~~~ -------------9~~~ ----------------|
    E|------------------------------------------|
    
    e|-------------------------------------------------------------|
    b|-------------------------------------------------------------|
    G|---------------------------------------11-9-11-9-------------|
    D|----7-9~--9-7---7-9~--9-7---7-9~--9-7------------11-9-11-9---|
    A|--9-----------9-----------9----------------------------------|
    E|-------------------------------------------------------------|
    
    e|----------------------------------------------------|
    b|----------------------------------------------------|
    
  • +
    ¡Colabora con nosotros!
    Envíanos tu versión de esta canción

Letra de Crippidiscopunk
CrippiDiscoPunk!
ESTROFA 1 (RIFF)
Un flashazo de esa luz, me dice que en tus pupilas
Ya no existes solo tú, un parasito
Te invade los sesos, vive en tu cráneo
A donde vas tú y yo que sé, parece seguimos vivos
El gusano de neón, borró esa lapida
De tu corazón, de tu corazón
Quieres bailar cripidiscopunk, CripidisCopunk o o o o o o
Quieres bailar cripidiscopunk, Cripidiscopunk o o o
Y que no se que no se que no se que no
apiade de ti apiade de ti apiade de ti se apodere
Quieres bailar cripidiscopunk
ESTROFA 2 (RIFF IGUAL A LA ESTROFA 1)
Corriendo en la oscuridad, veo que acumulaste todo
Un gran acaro mental, te succionará
Si no apagas las luces, pides cambio
Va empezando a amanecer, el sol prepara su arribo,
Vas perdiendo la razón y tus párpados
Ya no habitan en el mismo barrio
Quieres bailar cripidiscopunk, Cripidiscopunk o o o o o o
Quieres bailar cripidiscopunk, Cripidiscopunk o o o
Y que no se que no se que no se que no
apiade de ti apiade de ti apiade de ti se apodere
Quieres bailar cripidiscopunk
BRIDGE
Y que no se apiade de ti, Y que no se apiade de ti,
que no se apodere que no se apodere
Y que no se apiade de ti, y que no se apiade de ti, que no se apodere
Quieres bailar cripidiscopunk o o o o o o
Quieres bailar cripidiscopunk, Cripidiscopunk o o o o o o
Quieres bailar cripidiscopunk, Cripidiscopunk disco o o o o o o
Y que no se apiade de ti, y que no se apiade de ti,
que no se apiade de ti, que no se apodere
Quieres bailar Cripidiscopunk o o o o o o
SALIDA




[Crippidiscopunk chords][Crippidiscopunk cifra]
© LaCuerda.net · aviso legal · privacidad · es · en · pt · contacto
DINAMICO