Acordes de Guitarra » C »Cabrito Budú » Tanto corazón (Tab)

Tanto corazón
Cabrito Budú

Letras, Acordes y Tabs para Guitarra, Bajo y Ukulele

  • e|----------------------------------------- 
    B|-----------------------------------------
    G|-----------------------------------------
    D|--------4---------4----4-4-0----4-4-0----
    A|-0-1-2-----0-1-2-------------0--------0--
    E|-----------------------------------------
    
               B    
    Son los colores del pelo
                              D
    que llevas cuando todos voltean a ver
    
                 B
    Son los tatuajes que llevas por dentro
                      D
    esos que nadie puede ver
    
                 B
    Es que es el frio en tu piel en verano 
                            G
    
  • e|-----------------------------------------
    B|-----------------------------------------
    G|-----------------------------------------
    D|--------4---------4----4-4-----4-4-------
    A|-0-1-2-----0-1-2----------5--------5-----
    E|----------------------------5--------5---
    
    e|-----------------------------------------
    B|-----------------------------------------
    G|-----------------------------------------
    D|--------4-------4-----4-4-------4-4------
    A|-0-1-2----0-1-2-----------5---------5----
    E|----------------------------5------------
    
    
    
    Em      
    Son los colores del pelo
                            G
    que llevas cuando todos...
    
  • ----------------------------------------------------------------------
    * Intro:
    
      Riff:
      e|----------------------------------------------------------|
      B|----------------------------------------------------------|
      G|----------------------------------------------------------|
      D|-------------4--------------4-----4-4-0--------4-4-0------|
      A|----0-1-2----------0-1-2------------------0------------0--|
      E|----------------------------------------------------------|
    
    * Verso:  B  D
    
    * Pre-coro: D  A  D  G  D  A  G
    
    * Choro: D  A  D  G  D  A  G
    ---------------------------------------------------------------------
    
    
    * INTRO:
    
  • +
    ¡Colabora con nosotros!
    Envíanos tu versión de esta canción

Letra de Tanto corazón
Son los colores del pelo
que llevas cuando todos...
son los tatuajes que llevas por dentro
esos que nadie puede ver
es que es el frio en tu piel en verano
cuando todos sienten calor
eres la estrella que brilla en el dia
aun cuando lo ataca el sol
y es que ahora estoy
fuera quiero abismo
tanto corazon no me basto
y es que ni pensarlo
menos intentarlo
tanta soledad me hizo daño
I think I love you güera
so much I love you güera
y si tu quieres
me esperare hasta el final
I think I love you güera
so much I love you Güera
y si tu quieres
me esperare hasta el final
Se repite el Intro-
Mismos acordes-
Son los colores del pelo
que llevas cuando...
Son los tatuajes que llevas por dentro
esos que nadie puede ver
Es que es el frio en tu piel en verano
cuando todos sienten calor
Eres la estrella que brilla en el dia
aun cuando lo ataca el sol
Y es que ahora estoy
fuera quiero abismo
tanto corazon no me basto
y es que ni pensarlo
menos intentarlo
tanta soledad me hizo daño
I think I love you güera
so much I love you güera
y si tu quieres
me esperare hasta el final
I think I love you güera
so much I love you güera
y si tu quieres
me esperare hasta el final
I think I love you güera
so much I love you güera
y si tu quieres
me esperare hasta el final
I think I love you...
Al final tocas la cuerda 'A', junto con su quinta,
desde el primer traste hasta el ultimo, o sea,
desde A#5 hasta donde puedas, mas o menos asi se oye parecido a la cancion
No estoy muy seguro de la letra, asi que puede haber errores
Un saludo a Ely, de Tijuana
-algun comentario escriban a: disintegrator@tutopia.com




[Tanto corazón chords][Tanto corazón cifra]
© LaCuerda.net · aviso legal · privacidad · es · en · pt · contacto
DINAMICO