Acordes de Guitarra » C »los Caballeros de la Quema » Todo tan raro (Tab)

Todo tan raro
los Caballeros de la Quema

Letras, Notas, Punteos, Tablaturas y Acordes de Guitarra (Tabs & Chords)

  • Letra y Acordes
    Intro: D-A-Bm-F#m-G-D-Em-A
    
    D     A             Bm                  F#m
    Son estos dias de vivir con la muerte en la nuca
    G         D           Em                  A
    en esta epidemia de silencios de nunca acabar
    D     A               Bm                F#m
    seria bien bueno distraerse tejiendo ternuras,
    G                 D                Em               A
    que abran cancha las penas y un milagro nos saque a bailar.
            G        D
    Pero esta todo tan raro.
    G        D
    Todo es tan raro.
           Bm              F#m          Em             A
    Nadie sabe que precio colgarse en la rifa de la soledad.
    
    Hoy esta todo tan raro.
    Todo es tan raro.
    Uno empieza tachando la doble y termina en el fondo del mar.
    
  • Letra y Acordes
    -------0-2---2-3-3-3-2--------------3-5-3---3-5-7-5-3-------------2--------------------
    ------------------------4-2---2--2-4------4--------------------------------------------
    ----------------------------4----------------------------------------------------------
    ---------------------------------------------------------------------------------------
    ---------------------------------------------------------------------------------------
    
      D         F#m          Bm          F#m           G          D           A
    
    A/
    D            F#m          Bm               F#m
    Son esos días de vivir con la muerte en la nuca
    G            D                A         Asus4 A
    es esta epidemia de silencios de nunca acabar
    sería bien bueno distraerse tejiendo ternuras,
    que abran cancha las penas y un milagro nos saque a bailar.
    
    B/
     G                   D
    Pero está todo tan raro.
     G              D
    
  • Tablatura
    Intro: E B C#m A
    
    E|---------------------------------------------------------|
    B|---------------------------------------------------------|
    G|-9s11-11-------------------------------------7-9-7-----7-|
    D|---------9s11-11-11-12-12-12-11-9-7----7-7s9-------7s9---|
    A|-------------------------------------9-------------------|
    e|---------------------------------------------------------|
    
    E|---------------------------------------|
    B|---------------------------------------|
    G|-9s11-9-7---11-11-9-9--7-9-7----------7|
    D|-----------------------------9---7-9---|
    A|--------------------------------9------|
    e|---------------------------------------|
    
    E             B           C#m             A 
    Son estos dias de vivir con la muerte en la nuca
    E             B            C#m             A 
    en esta epidemia de silencios de nunca acabar
    
  • Tablatura
       D     A       B#m         F#m       G           D
    E|-0h2-----------------------------------------------------|
    B|-------0h2---2-3-3-3-2-0-----------------3-5---4-5~7-5-4-|
    G|---------------------------2-----2-----4-----5-----------|
    D|-0-----------------------------4-------------------------|
    A|-------0-------2---2-----------------------------0-------|
    e|---------------------------2---------3-------------------|
    
       Em     A          D... (sigue hasta LA 1ra. Parte)
    E|---2-0-------------2----|
    B|--------2~3-2----2~3----|
    G|--------------2----2----|
    D|-------------------0----|
    A|--------0---------------|
    e|-0----------------------|
    
    (1ra. Parte)
              A          B#m                   F#m
    Son estos dias de vivir con la muerte en la nuca
    G              D            Em                A
    
  • +
    ¡Colabora con nosotros!
    Envíanos tu versión de esta canción

Letra de Todo tan raro
Son estos dias de vivir con la muerte en la nuca
en esta epidemia de silencios de nunca acabar
seria bien bueno distraerse tejiendo ternuras,
que abran cancha las penas y un milagro nos saque a bailar.
Pero esta todo tan raro.
Todo es tan raro.
Nadie sabe que precio colgarse en la rifa de la soledad.
Hoy esta todo tan raro.
Todo es tan raro.
Uno empieza tachando la doble y termina en el fondo del mar.
Son estas noches de esperanzas desesperadas
de el sueño en compota y el escabio para no pensar.
Pero...¿quien nos dice que a la vuelta de tanta derrota
cambiemos de pilchas y los miedos nos dejen en paz?
Hoy esta todo tan raro.
Todo es tan raro.
Nadie sabe que precio colgarse en la rifa de la soledad.
Hoy esta todo tan raro.
Todo es tan raro.
Nadie sabe que precio colgarse en la rifa de la soledad.
En este pais en broma, nada nos hace reir
con la mierda trepando al cuello se pone oscuro respirar para seguir
porque esta todo tan raro.
Todo tan raro.
Hoy esta todo tan raro.
Todo es tan raro...
___________________________________________________________________________________
Dedicado a Maria Florencia Berrueso ("Son estas noches de esperanzas desesperadas")
Cualquier duda, sugerencia, pedido, consulta o insulto haganmelo llegar a:
federico_garcia@uol.com.ar



© LaCuerda.net · Aviso Legal · Privacidad