Acordes de Guitarra » C »los Caballeros de la Quema » Romulo y Remo (Tab)

Romulo y Remo
los Caballeros de la Quema

Letras, Notas, Punteos, Tablaturas y Acordes de Guitarra (Tabs & Chords)

  • Letra y Acordes
    A|-----------------------1-2-3-1-3-1-3-1-3-|
    E|-(0)-1-2-3-1-3-1-3-1-3-------------------|
    
    despues la viola encima del bajo toca
    esto en la segunda vuelta:
    E|----------------------------5--3------5--3-|
    B|-----5--3--------5--3----------------------|
    G|-------------------------------------------|
    D|-/5---------/5----------/5--------/5-------|
    
    
    
    G7              C7
       Dos negras dominicanas
           G7                       C7
       una casa en la playa, tiempo que perder
    G7                C7
       Doscientos don perignones
            G7                 C7
       y la cara dura a prueba de chichones
    
  • Tab p/Bajo
    INTRO:
     
          1-------------------------------------------+
          2-------------------------------------------+
          3-------------------------------------------+
          4-0-0-1-2--0-2--2--0-2---3-4-5--3-5--5--3-5-+
  • +
    ¡Colabora con nosotros!
    Envíanos tu versión de esta canción

Letra de Romulo y Remo
despues la viola encima del bajo toca
esto en la segunda vuelta:
Dos negras dominicanas
una casa en la playa, tiempo que perder
Doscientos don perignones
y la cara dura a prueba de chichones
Secretos, amores, canciones mas mejores
invitarlo a Marlon Brando una noche a cenar
Ganar un puto sorteo
que la democracia no nos tome el pelo
Ser mas compinche de mi soledad
No andar de oferta cuando vos no estas
Un cuore que no tropiece
treinta y cinco veces con la misma piedra
un buen cáncer en los huevos
para los Galtieri y para los Massera
Amigos, enfiestes, que me duren los dientes
poder olvidarte cuando se me de la gana
Que el cielo nos quede a mano
por si en el infierno no quedan mas camas
Venderme caro al peor postor
Pensar despacio y con hambre de gol...
Riff 2:
Queremos todo un poco mas de todo,
de todo un poco y un poco además
Diez kilos de sangre fría
siempre en el bolsillo una buena mentira
Tener suerte en los fracasos
y con los pecados buena puntería
De postre un gran vino, de entrada un buen ombligo
Un safari hasta las tetas de Graciela Alfano
Ser viejo cuando no duela
y que la huesuda no me tenga en cuenta
Que no te alcance lo que no te doy
Que no te sirva lo que nunca soy
Estribo
Venderme caro al peor postor,
Pensar despacio con hambre de gol...
Estribo
mira vos...



© LaCuerda.net · Aviso Legal · Privacidad