Acordes de Guitarra » B »Bulldog » 3D (Tab)
  • Letra y Acordes
    INTRO: G D C G X2
    
            G               D
    Tercero d que bien se te ve
            C               G
    tercero d el que sienpre ame
                    G
    no me dejan cantar
                    D
    no me dejan bailar
                C
    nos tiran agua
                G
    la que se va armar
      
       G    
    Lava lava lava lava lava lava 
       D             C                 G
    lavandera vas a ver la que te espera x2
    
    
  • Tablatura
    1 Punteo:
    
    1-10-7-10-7--5--10-7-10-7-7/8--10-7-10-7--3-+
    2-------------------------------------------+
    3-------------------------------------------+
    4-------------------------------------------+
    5-------------------------------------------+
    6-------------------------------------------+
    
    SOLO:
    
    1-------------------------------------------+
    2-------------------------------------------+
    3------------------------------------7--7---+
    4-3-5--5/7--7h8-7-5--7-7/8-7--5--7-5--------+
    5-------------------------------------------+
    6-------------------------------------------+
    
    1---------------------------------10-----------+
    2-8--8--10/8-11--11--10--8--10/11----11p10-8-8-+
    3----------------------------------------------+
    4----------------------------------------------+
    5----------------------------------------------+
    6----------------------------------------------+
  • Tablatura
    E ---2---------5----3--------2----2--2------------
    B ---2---------7----5--3/5---2----2--2------------
    G ---4---4/5---7----5--------4----4--4------------
    D ---5---------7----5--------5--------------------
    A ---5---------5----3--------5--------------------
    E ---3-----------------------3--------------------
    
    LUEGO HACE: (G,D,C) Y MIENTRAS HACEC:
    
    E --10-7-10-7----10-7-10-7----------
    B ------------10-----------8--------
    G ------------10-----------7--------     DOS VECES
    D ----------------------------------
    A ----------------------------------
    E ----------------------------------
    
    EL PUNTEO A MITAD DEDL TEMA:
    
    E ------------------------------
    B -------------------------8----
    
  • Tab p/Bajo
    Empieza la guitarra y el bajo entra asi dsp del corte de la bata
    Intro:
    G----------------------------------------------------|
    D----------------------------------------------------|
    A3-3-3-3-3-3-3-3-3h3---------------------------------|
    E-------------------3-3-3-3-3-3-3-3--3-3-3-3-3-3-3-3-|
    
    G-------------------------------------------------------|
    D-------------------------------------------------------|
    A2h3-5-5-5-5-5-5-5-5-3-3-3-3-3-3-3-3-3h3----------------|
    E--------------------------------------3-3-3-3-3-3-3-3--|
    Empieza a cantar:
    G-----------------------------------|
    D-----------------------------------|
    A---------------2h3-5-5-5-5-5-5-5-5-|
    E3-3-3-3-3-3-3-3--------------------|
    
    G-----------------------------------|
    D-----------------------------------|
    A3-3-3-3-3-3-3-3-3h3----------------|
    E-------------------3-3-3-3-3-3-3-3-|
    
    G----------------------------------------|
    D---------------------------------5------|
    A---------------2h3-5-5-5-5-5-5-5--5-3-5-|
    E3-3-3-3-3-3-3-3------
  • +
    ¡Colabora con nosotros!
    Envíanos tu versión de esta canción

Letra de 3D
Tercero d que bien se te ve
tercero d el que sienpre ame
no me dejan cantar
no me dejan bailar
nos tiran agua
la que se va armar

Lava lava lava lava lava lava
lavandera vas a ver la que te espera x2
Con dos petisas
y un cajon
que viva el vino
y el porron
mi amigo mauro
con su despensa
nos suministra toda la cerveza
Lava lava lava lava lava lava
lavandera vas a ver la que te espera x2
esto va dedicado... G D C D G X2
Oh esta todo bien todo bien todo bien esta todo bien
Oh esta todo bien todo bien todo mal esta todo bien
Oh esta todo bien todo bien todo bien esta todo bien
Oh esta todo bien todo bien todo bien esta todo
Bien bien muy bien bien muy bien.



© LaCuerda.net · aviso legal · privacidad · contacto
DINAMICO