Acordes de Guitarra » B »Bonanza » Agua y arena (Tab)

Agua y arena
Bonanza

  • Letra y Acordes
            REm          SOLm        REm        SOLm        LA7        REm
      1--1-----1------3-----3-----1-----1-----3-----3----0-----0----1-----1---
      2--3-3----3-----3-3----3----3-3----3----3-3----3---2-2----2---3-3----3--
      3--2---2---2----3---3---3---2---2---2---3--3----3--0--0----2--2---2---2-
      4--0------------------------0----------------------2----------0---------
      5---------------4-----------------------4-------------------------------
      6-----------------------------------------------------------------------
    
                       2----------------
                       3--3-2-3--5-4-2--
                       4----------------
    
    
                      REm                         SOLm
                      no quiero seas como esos sueños
                              DO               FA 
                      q de mi vida fueron partiendo
                                LA7           REm
                      yo quiero seas tu mi camino
                                     LA7              REm
    
  • +
    ¡Colabora con nosotros!
    Envíanos tu versión de esta canción

Letra de Agua y arena
3--3-2-3--5-4-2--
no quiero seas como esos sueños
q de mi vida fueron partiendo
yo quiero seas tu mi camino
quiero en tus manos dejar mis alas
si tu supieras como entre sueños
yo se encontrarte de mil maneras
con q misterio te haces mi dueña
agua y arena q me encadena
luego me hace ir, soy tuyo y soy
aquel q matiza tus deseos
tu sensacion de libertad, nada mas
tu con tus secretos
tu pasion yo con mis ganas
de canbiar todo este encierro
en libertad mi ansiedad.
Es tan grande para verte
sin sentir q yo te deba
conpartir o hacerme el tonto.. y no entender
aconpañamiento
lo q hayer fuera
y mi conciencia ya te reclama
q cuando acaban...
amarte siempre sin saberte mia.
yo se q existen cosas muy bellas
q se acarician con ilucion
y se marchitan cuando hay razones
asi es mi vida entre en tu vida.
luego me hace ir, soy tuyo y soy
aquel q matiza tus deseos
tu sensacion de libertad, nada mas
tu con tus secretos
tu pasion yo con mis ganas
de canbiar todo este encierro
en libertad mi ansiedad.
Es tan grande para verte
sin sentir q yo te deba
conpartir o hacerme el tonto.. y no entender
bueno cualquier duda o consulta solo escriban a mi correo o a
wilmar_alcon_100pre@hotmail.com ok chaufa cuidense



© LaCuerda.net · aviso legal · privacidad · contacto