Acordes de Guitarra » B »Bon Jovi » Lecho de Rosas (Tab)

Lecho de Rosas
Bon Jovi

Letras, Acordes y Tabs para Guitarra, Bajo y Ukulele

  •   Bbmaj7    F9    Am     Bb      F               
    e---x-------3------0------x------1-----------
    B---3-------1------1------3------1-----------
    G---2-------2------2------3------2-----------
    D---3-------3------2------3------3-----------
    A---1-------x------0------1------3-----------
    E---x-------x------x------x------1-----------
          
       C        C/E     Dm     Fsus4     Bb/F
    e--0---------3-------1------x---------x------
    B--1---------1-------3------1---------3------
    G--0---------0-------2------3---------3------
    D--2---------2-------0------3---------3------
    A--3---------x-------x------3---------x------
    E--x---------0-------x------1---------1------
    
    ****************************************************
    
    Keyboard arranged for guitar:
    ============================
    
  • F  A#
       solo y tan triste estoy
                       F
       como un viejo piano
             A#
       tarde ya, sin saber donde
                      F
       despierto sin rumbo
                   Am
       por que un litro de vodka
            A# 
       he bebido ayer
              F
       y una rubia en mi cama
                         A#
       siempre me espera tal vez
    
       pesadillas de cine
            C                     F
       que te hacen morir sin nacer
    
  • F
       A#
       solo y tan triste estoy
                       F
       como un viejo piano
             A#
       tarde ya, sin saber donde
                      F
       despierto sin rumbo
                   Am
       por que un litro de vodka
            A#
       he bebido ayer
              F
       y una rubia en mi cama
                         A#
       siempre me espera tal vez
    
       pesadillas de cine
            C                     F
    
  •   Bbmaj7    F9    Am     Bb      F
    e---x-------3------0------x------1-----------
    B---3-------1------1------3------1-----------
    G---2-------2------2------3------2-----------
    D---3-------3------2------3------3-----------
    A---1-------x------0------1------3-----------
    E---x-------x------x------x------1-----------
    
       C            Dm      Fsus4
    e--0---------1-------x---------
    B--1-- ------3-------1---------
    G--0---------2-------3---------
    D--2---------0-------3---------
    A--3---------x-------3---------
    E--x---------x-------1----------
    
    Intro:
    =====
    
    E---10-12-(b)13-12-10------------10-12-(b)13-12-10-------------------
    
  • +
    ¡Colabora con nosotros!
    Envíanos tu versión de esta canción

Letra de Lecho de Rosas
****************************************************
Keyboard arranged for guitar:

Video de Lecho de Rosas
[]




[Lecho de Rosas chords][Lecho de Rosas cifra]
© LaCuerda.net · aviso legal · privacidad · es · en · pt · contacto
DINAMICO