Acordes de Guitarra » B »Bon Jovi » Como yo nadie te ha amado (Tab)

Como yo nadie te ha amado
Bon Jovi

Letras, Acordes y Tabs para Guitarra, Bajo y Ukulele

  • E                     B
    Yo no vi las flores marchitar
    D                     A
      Ni ese frío en tus ojos al mirar
     Am            E         B7
    No, no vi la realidad me ibas a dejar
    B
    Dicen que la vida baby
    SI
    No es como la ves
    D               A
      Para aprender  hay que caer
    Am             E              B7
       Para ganar hay que perder lo di todo por ti
    PRE COROS:
       A
    Llore y llore
          C#m          B
    Y jure que no iba a perderte
       A
    
  •         E       B/D#    Bm/D       A       Am            
    e-------0--------2--------2--------0--------0---
    B-------0--------0--------0--------2--------1---
    G-------1--------X--------X--------2--------2---
    D-------2--------1--------0--------2--------2---
    A-------2--------X--------X--------0--------0---
    E-------0--------X--------X--------X--------X---
    
                    A9       D       C#m      B   
    e---------------0--------2--------4-------2----
    B---------------0--------3--------5-------4----
    G---------------6--------2--------6-------4----
    D---------------7--------0--------6-------4----
    A---------------7--------X--------4-------2----
    E---------------5--------X--------X-------2----
    
    
    Intro: [E-B/D#-Bm/D-A-Am-E-(e-b-g)-B]  X2
    
    Verse 1
    
  • e-------------------7---------------------------------------------
    B--9--9--7---7---9------5-----------------------------------------
    G----------------------------5--5---4--4/6--4---------------4-6/8----
    D-----------------------7----7--7---2---------4/6--4------4------
    A--7-----5--------------------------------------------4/6---------
    E-----------------------------------------------------------------
    
    
    E                   B7
    Yo no vi las flores marchitar
    D                              A
    Ni ese frío en tus ojos al mirar
    Am           E           B7
    No, no vi la realidad me ibas a dejar
    
    
    E
    Dicen que la vida pebe
    B7
    No es como la ves
    
  • MI                   SI
    Yo no vi las flores marchitar
    RE                   LA
    Ni ese frío en tus ojos al mirar
    LAm       MI                SI7
    No, no vi la realidad me ibas a dejar
    
    
    MI
    Dicen que la vida baby
    SI
    No es como la ves
    RE               LA
    Para aprender  hay que caer
    LAm                  MI          SI7
    Para ganar hay que perder lo di todo por ti
    
    
    Pre coros:
       LA
    
  •   E      B/D#   Bm/D     A      Am        E              B
    |-------------|--------7------|------------------------|-------------------|
    |-9--9-9-7----|-7--7-9---5----|-4s5-5------------------|-------------------|
    |-------------|---------------|-------5-5-4--4s6-4-----|----------4-6s8----|
    |-------------|----------7----|-6s7-7-7-7-2--------4s6p|=4------4----------|
    |-7----7-6----|-5-------------|------------------------|----4s6------------|
    |-------------|---------------|------------------------|-------------------|
    
    Verso I
      E      B     Bm  A     Am  E     B
    |------------|---------|---------|--------------------------------|
    |-4s5--------|---------|---------|--------------------------------|
    |------------|---------|---------|---------4-6s=8-----------------|
    |------------|---------|---------|-------4------------------------|
    |------------|---------|---------|---4s6--------------------------|
    |------------|---------|---------|--------------------------------|
    
                                        |--------------------------------|
                                 |-------------12b13==(12)-(12)---|
                                        |--------------------------------|
    
  •                             E  B  G  D  A  E
    
    Esus4                       0  0   1   4   2  0
    B                           2  4   4   4   2  2
    Bm                          2  3   4   4   2  2
    A                           0  2   2   2   0  0
    Am                          0  1   2   2   0  0
    E                           0  0   1   2   2  0
    C#m                         4  5   6   6   4  4
    
    INTRO:
    
    
    Esus4        B    Bm        A   Am           E      B
    
    e|---------------|---------7---|-----------------|------------------|
    B|-9--9----9--7--|--7--7/9---5-|-5----5----------|------------------|
    G|---------------|-------------|--------6----2/4-|--4/6--4----------|
    D|---------------|-------------|----7-----7------|----------4/6--4--|
    A|-7--7--7----6--|--5--5-----0-|-0---------------|------------------|
    
  • Empieza 'dicen que la vida........'
    
    G|----------------------------------------|-----------|
    D|----------------------------------------|-----------|
    A|--7--6--5--5-4-2-0-----0--7/9-7-7-6-4-2-|2--2-4-2-0-|
    E|7-------------------0-------------------|-----------|
    
    Puente:
    G|--------------------|-------------------|--------------------|
    D|--------------2-----|--------------2----|--------------2-----|
    A|0--0-2-3-4--4---4-2-|0-2--0-2--0-2---4--|0--0-2-3-4--4---4-2-|
    E|--------------------|-------------------|--------------------|
    
    
    
    Coro:
    
    G|-------------------------------------|
    D|------------1-2----------------------|
    A|--6/7----4-4----0-0------------4-2--0|
    E|0-----7-------------4-2-0--0-4-------|
    
    Verso II
    
    G|---------------------------------------|
    D|---------------------------------------|
    A|-7--6--5--5-4-2-0-----0--7/9-7-7-6-4-2-|
    E|-------------------0-------------------|
    
    G|----------------------------------------|-----------|
    D|------------------------
  • +
    ¡Colabora con nosotros!
    Envíanos tu versión de esta canción

Letra de Como yo nadie te ha amado
Yo no vi las flores marchitar
Ni ese frío en tus ojos al mirar
No, no vi la realidad me ibas a dejar
Dicen que la vida baby
No es como la ves
Para aprender hay que caer
Para ganar hay que perder lo di todo por ti
PRE COROS:
Llore y llore
Y jure que no iba a perderte
Trate y trate
De negar este amor tantas veces baby
COROS:
Si mis lagrimas fueron en vano
Si al final yo te ame demasiado
Como yo
Como yo nadie te ha amado
Cada hora una eternidad
cada amanecer un comenzar
ilusiones nada mas
que fácil fue soñar
tantas noches de intimidad
parecían no acabar
nos dejamos desafiar y hoy nada es igual
PRE COROS 2
se que en verdad el amor
al final siempre duele
no lo pude salvar
y hoy voy a pagarlo con creces baby
COROS
COROS 2:
Esta vez la pasión ha ganado
Y por eso sigo esperando
Como yo
Como yo Nadie te ha amado
Pre coros
Coros
Coros 2
Como yo Como yo Nadie te ha amado
Como yo Como yo Nadie te ha amado
cualuqier cosa a mi correo

Video de Como yo nadie te ha amado
[]




[Como yo nadie te ha amado chords][Como yo nadie te ha amado cifra]
© LaCuerda.net · aviso legal · privacidad · es · en · pt · contacto