Acordes de Guitarra » B »Bersuit Vergarabat » El Pacto (Tab)

El Pacto
Bersuit Vergarabat

Letras, Acordes y Tabs para Guitarra, Bajo y Ukulele

  • G
    Un pacto para vivir, 
    odiándonos Sol a Sol 
                 Bm
    revolviendo más
           Em             C
    En los restos de un amor,
    D             C 
    como un camino recto,
    D         Em 
    a la desesperación
    Bm               B7              G
    ¿Desenlace? en un cuento de terror.
    
    Seis años así escapando a un mismo lugar 
    con mi fantasía
    Buscando otro cuerpo, otra voz, 
    fui consumiendo infiernos
    Para salir de vos, 
    intoxicado loco y sin humor.
    
  • G
    Un pacto para vivir, odiándonos sol a sol
               D6/Fa#        Em             C
    Revolviendo más  en los restos de un amor,
     D              C        D            Em
    Con un camino recto  a la desesperación
     Bm                 B7         G
    desde el hacer un cuento de terror.
    
    G
    Seis años así escapando a un mismo lugar
                D/Fa#                Em          C
    con mi fantasía  buscando otro cuerpo, otra voz.
     D                  C     D               Em
    Fui consumiendo infiernos para salir de voz,
    Bm            B7         G
    Intoxicado loco y sin humor.
    
    C . .  .   C   .   .   .   G . .  .  G . . .
    ohhhh ohh  ohh ohh ohh ohh ohhhh ohh ohhhh
    
  • e|---------------------------------|---------------------------------|>
    B|-------0-------0-------0-------0-|-------0-------0-------0-------0-|>
    G|-----0-------0-------0-------0---|-----0-------0-------0-------0---|>
    D|---0-------0-------0-------0-----|---0-------0-------0-------0-----|>
    A|---------------------------------|---------------------------------|>
    E|-3-------3-------3-------3-------|-3-------3-------3-------3-------|>
       1   +   2   +   3   +   4   +     1   +   2   +   3   +   4   +  
    
                               1ER ESTROFA
                               ===========
    e|---------------------------------|---------------------------------|>
    B|-------0-------0-------0-------0-|-------0-------0-------0-------0-|>
    G|-----0-------0-------0-------0---|-----0-------0-------0-------0---|>
    D|---0-------0-------0-------0-----|---0-------0-------0-------0-----|>
    A|---------------------------------|---------------------------------|>
    E|-3-------3-------3-------3-------|-3-------3-------3-------3-------|>
       1   +   2   +   3   +   4   +     1   +   2   +   3   +   4   +  
    
    
    e|---------------------------------|---------------------------------|>
    
  • E:-----------------------------        ---------------------------------
    B:-------0------0-----0-----0--        --------0-----0------0------0----
    G:-----0-----0------0-----0----X5      ------0-----0-----0-------0------X2
    D:---0-------0------0-----0----        ----0-------0-----0-------0------
    A:-----------------------------        ---------------------------------
    E:-3--------3------3-----3-----            --2-------2-----2-------2--------
    
          En los restos                  de un amor
    e:------------------------------------------------------------------------
    B:-------0--------0--------0----------------1--------1--------1-----------
    G:-----0-------0--------0---------0-------0--------0--------0-------------
    D:---2---------2--------2--------2-------2---------2--------2-------------
    A:-------------------------------------3---------3--------3--------3------
    E:-0---------0--------0--------0------------------------------------------
    
          con un camino...                recto            
    e:------------------------------------------------------------------------
    b:-------3--------3--------3-----------------1-------1--------1-----------
    G:-----0--------0--------0-----------------0-------0--------0---------0---
    D:---4----------4--------4---------------2---------2--------2--------2----
    
  • armonica en Do
    
    
     5 6 6 6 6 5 5   5 6 6 6 6 5 6
     5 5 6 5 5   5(4) (4)4   5(4)4
     4(3)4 5(4)(4)4    4 4(3)4 5(4)4
     4(3)4 5(4)(4)4  5  (4) 4____\ [(7)larga 7(7)(6)(7)]
    		 de terror
    
    
    Intoxicado, loco y sin humor.
     ____\ [ 7(7)b  6(6)(7)7(7)7(8)8b   (8)8(8)a 7(7)a 7(7)a
    		6(6)(7)7(7)7(8)8b   (8)8(8)a 7(7)a 7(7)a
    		(7)(7)(7)(7)(8)(7)6  6 6 6 6(7)6(4)5 6 6]
    
    	  
    
    					   8     (8)8(8)a
    Y hoy quiero darle rienda a esta superstición... (ohh... ohh...)
     7(7)a 7(7)a	      6(6)(7)7(7)7(8)8b		 (8)8(8)a
       Un pacto para vivir...                        (ohh... ohh...)
     7(7)a 7(7)a	      6(6)(7)7(7)7(8)8b		 (8)8(8)a
       Un pacto para vivir		                 (ohh... ohh...)
     7(7)a 7(7)a		(7)(7)(7)(7)(8)(7)6  6 6 6 6(7)6(4)5 6 6   5 6 6
       Un pacto para vivir
    
    
    []: imita el acordión
    
    ____\: inmediatamente después
    
    a: 2 tiempos
    b: 3 tiempos
  • +
    ¡Colabora con nosotros!
    Envíanos tu versión de esta canción

Letra de El Pacto
Un pacto para vivir,
odiándonos Sol a Sol
revolviendo más
En los restos de un amor,
como un camino recto,
a la desesperación
¿Desenlace? en un cuento de terror.
Seis años así escapando a un mismo lugar
con mi fantasía
Buscando otro cuerpo, otra voz,
fui consumiendo infiernos
Para salir de vos,
intoxicado loco y sin humor.
Inter: [G-C] x2 G – [Em-Am]
Si hoy te tuviera aquí
cuando hago esta canción
me sentirías raro
No tengo sueño,
tuve un golpe energético
Milagro y resurrección,
y eso que estaba tieso,
bajo control.
El poder siempre manda
si para tenerte aquí
había que maltratarte !
No puedo hacerlo,
sos mi Dios, te veo me sonrojo y tiemblo
Que idiota te hace el amor,
y hoy quiero darle rienda
a esta superstición
UN PACTO PARA VIVIR! un pacto para vivir (oh!)
UN PACTO PARA VIVIR! un pacto para vivir (oh!)
UN PACTO PARA VIVIR! un pacto para vivir
Un Pacto........para VIVIR!, para VIVIR!
para Lau!




[El Pacto chords][El Pacto cifra]
© LaCuerda.net · aviso legal · privacidad · es · en · pt · contacto