Tablatura para Guitarra de Bersuit Vergarabat: El Pacto
Conexión · Inscripción
Letras y Acordes
Pantalla Completa
Imprimir
Versión Texto
Añadir Favorito
Otras Versiones

Mostrar Diagramas
Desfile Automático
Manipular Acordes
Formato del Texto


Bersuit Vergarabat
El Pacto(TAB)
calidad:
bers0223
AUTOR: Cordera
ALBUM: De la cabeza con... (2002)
Enviado por Guillermo
Si tienen alguna duda o quieren pedirme algún tab en especial (igualmente
no garantizo nada) mándenme un mail a guille@cponline.org.ar.


  INTRODUCCIÓN
  ============
e|---------------------------------|---------------------------------|>
B|-------0-------0-------0-------0-|-------0-------0-------0-------0-|>
G|-----0-------0-------0-------0---|-----0-------0-------0-------0---|>
D|---0-------0-------0-------0-----|---0-------0-------0-------0-----|>
A|---------------------------------|---------------------------------|>
E|-3-------3-------3-------3-------|-3-------3-------3-------3-------|>
   1   +   2   +   3   +   4   +     1   +   2   +   3   +   4   +  

                           1ER ESTROFA
                           ===========
e|---------------------------------|---------------------------------|>
B|-------0-------0-------0-------0-|-------0-------0-------0-------0-|>
G|-----0-------0-------0-------0---|-----0-------0-------0-------0---|>
D|---0-------0-------0-------0-----|---0-------0-------0-------0-----|>
A|---------------------------------|---------------------------------|>
E|-3-------3-------3-------3-------|-3-------3-------3-------3-------|>
   1   +   2   +   3   +   4   +     1   +   2   +   3   +   4   +  


e|---------------------------------|---------------------------------|>
B|-------0-------0-------0-------0-|-------0-------0-------0-------0-|>
G|-----0-------0-------0-------0---|-----2-------2-------2-------2---|>
D|---0-------0-------0-------0-----|---0-------0-------0-------0-----|>
A|---------------------------------|---------------------------------|>
E|-3-------3-------3-------3-------|-2-------2-------2-------2-------|>
   1   +   2   +   3   +   4   +     1   +   2   +   3   +   4   +  


e|---------------------------------|---------------------------------|>
B|-------0-------0-------0-------0-|-------0-------0-------0-------0-|>
G|-----2-------2-------2-------2---|-----0-------0-------0-------0---|>
D|---0-------0-------0-------0-----|---2-------2-------2-------2-----|>
A|---------------------------------|---------------------------------|>
E|-2-------2-------2-------2-------|-0-------0-------0-------0-------|>
   1   +   2   +   3   +   4   +     1   +   2   +   3   +   4   +  


e|---------------------------------|---------------------------------|>
B|-------1-------1-------1-------1-|-------3-------3-------3-------3-|>
G|-----0-------0-------0-------0---|-----0-------0-------0-------0---|>
D|---2-------2-------2-------2-----|---4-------4-------4-------4-----|>
A|-3-------3-------3-------3-------|-5-------5-------5-------5-------|>
E|---------------------------------|---------------------------------|>
   1   +   2   +   3   +   4   +     1   +   2   +   3   +   4   +  


e|---------------------------------|-------2-------2-------2-------2-|>
B|-------1-------1-------1-------1-|-----3-------3-------3-------3---|>
G|-----0-------0-------0-------0---|---2-------2-------2-------2-----|>
D|---2-------2-------2-------2-----|-0-------0-------0-------0-------|>
A|-3-------3-------3-------3-------|---------------------------------|>
E|---------------------------------|---------------------------------|>
   1   +   2   +   3   +   4   +     1   +   2   +   3   +   4   +  


e|-------0-------0-------0-------0-|---------------------------------|>
B|-----0-------0-------0-------0---|-------3-------3-------3-------3-|>
G|---0-------0-------0-------0-----|-----0-------0-------0-------0---|>
D|-2-------2-------2-------2-------|---4-------4-------4-------4-----|>
A|---------------------------------|-2-------2-------2-------2-------|>
E|---------------------------------|---------------------------------|>
   1   +   2   +   3   +   4   +     1   +   2   +   3   +   4   +  

                            PUENTE
                            ======
e|---------------------------------|---------------------------------|>
B|-------0-------0-------0-------0-|-------0-------0-------0-------0-|>
G|-----0-------0-------0-------0---|-----0-------0-------0-------0---|>
D|---1-------1-------1-------1-----|---0-------0-------0-------0-----|>
A|-2-------2-------2-------2-------|---------------------------------|>
E|---------------------------------|-3-------3-------3-------3-------|>
   1   +   2   +   3   +   4   +     1   +   2   +   3   +   4   +  

                            2DA ESTROFA
                             ===========
e|---------------------------------|---------------------------------|>
B|-------0-------0-------0-------0-|-------0-------0-------0-------0-|>
G|-----0-------0-------0-------0---|-----0-------0-------0-------0---|>
D|---0-------0-------0-------0-----|---0-------0-------0-------0-----|>
A|---------------------------------|---------------------------------|>
E|-3-------3-------3-------3-------|-3-------3-------3-------3-------|>
   1   +   2   +   3   +   4   +     1   +   2   +   3   +   4   +  


e|---------------------------------|---------------------------------|>
B|-------0-------0-------0-------0-|-------3-------3-------3-------3-|>
G|-----0-------0-------0-------0---|-----2-------2-------2-------2---|>
D|---0-------0-------0-------0-----|---0-------0-------0-------0-----|>
A|---------------------------------|---------------------------------|>
E|-3-------3-------3-------3-------|-2-------2-------2-------2-------|>
   1   +   2   +   3   +   4   +     1   +   2   +   3   +   4   +  


e|---------------------------------|---------------------------------|>
B|-------3-------3-------3-------3-|-------0-------0-------0-------0-|>
G|-----2-------2-------2-------2---|-----0-------0-------0-------0---|>
D|---0-------0-------0-------0-----|---2-------2-------2-------2-----|>
A|---------------------------------|---------------------------------|>
E|-2-------2-------2-------2-------|-0-------0-------0-------0-------|>
   1   +   2   +   3   +   4   +     1   +   2   +   3   +   4   +  


e|---------------------------------|-------2-------2-------2-------2-|>
B|-------1-------1-------1-------1-|-----3-------3-------3-------3---|>
G|-----0-------0-------0-------0---|---2-------2-------2-------2-----|>
D|---2-------2-------2-------2-----|-0-------0-------0-------0-------|>
A|-3-------3-------3-------3-------|---------------------------------|>
E|---------------------------------|---------------------------------|>
   1   +   2   +   3   +   4   +     1   +   2   +   3   +   4   +  


e|---------------------------------|-------2-------2-------2-------2-|>
B|-------1-------1-------1-------1-|-----3-------3-------3-------3---|>
G|-----0-------0-------0-------0---|---2-------2-------2-------2-----|>
D|---2-------2-------2-------2-----|-0-------0-------0-------0-------|>
A|-3-------3-------3-------3-------|---------------------------------|>
E|---------------------------------|---------------------------------|>
   1   +   2   +   3   +   4   +     1   +   2   +   3   +   4   +  


e|-------0-------0-------0-------0-|-------2-------2-------2-------2-|>
B|-----0-------0-------0-------0---|-----3-------3-------3-------3---|>
G|---0-------0-------0-------0-----|---2-------2-------2-------2-----|>
D|-2-------2-------2-------2-------|---------------------------------|>
A|---------------------------------|-2-------2-------2-------2-------|>
E|---------------------------------|---------------------------------|>
   1   +   2   +   3   +   4   +     1   +   2   +   3   +   4   +  

                            PUENTE
                            ======
e|---------------------------------|---------------------------------|>
B|-------0-------0-------0-------0-|-------0-------0-------0-------0-|>
G|-----0-------0-------0-------0---|-----0-------0-------0-------0---|>
D|---1-------1-------1-------1-----|---0-------0-------0-------0-----|>
A|-2-------2-------2-------2-------|---------------------------------|>
E|---------------------------------|-3-------3-------3-------3-------|>
   1   +   2   +   3   +   4   +     1   +   2   +   3   +   4   +  


e|---------------------------------||
B|-------0-------0-------0-------0-||
G|-----0-------0-------0-------0---||
D|---0-------0-------0-------0-----||
A|---------------------------------||
E|-3-------3-------3-------3-------||
   1   +   2   +   3   +   4   +


  ESTRIBILLO (rasgeado; es solo un ejemplo, pueden hacerlo como más les guste)
  ==========
C C e|-0---0-0-0---0-0-0---0-0-0---0-0-|-0---0-0-0---0-0-0---0-0-0---0-0-|> B|-1---1-1-1---1-1-1---1-1-1---1-1-|-1---1-1-1---1-1-1---1-1-1---1-1-|> G|-0---0-0-0---0-0-0---0-0-0---0-0-|-0---0-0-0---0-0-0---0-0-0---0-0-|> D|-2-------2-------2-------2-------|-2-------2-------2-------2-------|> A|-3-------3-------3-------3-------|-3-------3-------3-------3-------|> E|---------------------------------|---------------------------------|> 1 + 2 + 3 + 4 + 1 + 2 + 3 + 4 +
G G e|-3---3-3-3---3-3-3---3-3-3---3-3-|-3---3-3-3---3-3-3---3-3-3---3-3-|> B|-0---0-0-0---0-0-0---0-0-0---0-0-|-0---0-0-0---0-0-0---0-0-0---0-0-|> G|-0---0-0-0---0-0-0---0-0-0---0-0-|-0---0-0-0---0-0-0---0-0-0---0-0-|> D|-0-------0-------0-------0-------|-0-------0-------0-------0-------|> A|-2-------2-------2-------2-------|-2-------2-------2-------2-------|> E|-3-------3-------3-------3-------|-3-------3-------3-------3-------|> 1 + 2 + 3 + 4 + 1 + 2 + 3 + 4 +
C C e|-0---0-0-0---0-0-0---0-0-0---0-0-|-0---0-0-0---0-0-0---0-0-0---0-0-|> B|-1---1-1-1---1-1-1---1-1-1---1-1-|-1---1-1-1---1-1-1---1-1-1---1-1-|> G|-0---0-0-0---0-0-0---0-0-0---0-0-|-0---0-0-0---0-0-0---0-0-0---0-0-|> D|-2-------2-------2-------2-------|-2-------2-------2-------2-------|> A|-3-------3-------3-------3-------|-3-------3-------3-------3-------|> E|---------------------------------|---------------------------------|> 1 + 2 + 3 + 4 + 1 + 2 + 3 + 4 +
G G e|-3---3-3-3---3-3-3---3-3-3---3-3-|-3---3-3-3---3-3-3---3-3-3---3-3-|> B|-0---0-0-0---0-0-0---0-0-0---0-0-|-0---0-0-0---0-0-0---0-0-0---0-0-|> G|-0---0-0-0---0-0-0---0-0-0---0-0-|-0---0-0-0---0-0-0---0-0-0---0-0-|> D|-0-------0-------0-------0-------|-0-------0-------0-------0-------|> A|-2-------2-------2-------2-------|-2-------2-------2-------2-------|> E|-3-------3-------3-------3-------|-3-------3-------3-------3-------|> 1 + 2 + 3 + 4 + 1 + 2 + 3 + 4 +
Em C e|-0---0-0-0---0-0-0---0-0-0---0-0-|-0---0-0-0---0-0-0---0-0-0---0-0-|> B|-0---0-0-0---0-0-0---0-0-0---0-0-|-1---1-1-1---1-1-1---1-1-1---1-1-|> G|-0---0-0-0---0-0-0---0-0-0---0-0-|-0---0-0-0---0-0-0---0-0-0---0-0-|> D|-2-------2-------2-------2-------|-2-------2-------2-------2-------|> A|-2-------2-------2-------2-------|-3-------3-------3-------3-------|> E|-0-------0-------0-------0-------|---------------------------------|> 1 + 2 + 3 + 4 + 1 + 2 + 3 + 4 +
G G e|-3---3-3-3---3-3-3---3-3-3---3-3-|-3---3-3-3---3-3-3---3-3-3---3-3-|| B|-0---0-0-0---0-0-0---0-0-0---0-0-|-0---0-0-0---0-0-0---0-0-0---0-0-|| G|-0---0-0-0---0-0-0---0-0-0---0-0-|-0---0-0-0---0-0-0---0-0-0---0-0-|| D|-0-------0-------0-------0-------|-0-------0-------0-------0-------|| A|-2-------2-------2-------2-------|-2-------2-------2-------2-------|| E|-3-------3-------3-------3-------|-3-------3-------3-------3-------|| 1 + 2 + 3 + 4 + 1 + 2 + 3 + 4 + 3ER ESTROFA =========== e|---------------------------------|---------------------------------|> B|-------3-------3-------3-------3-|-------3-------3-------3-------3-|> G|-----4-------4-------4-------4---|-----4-------4-------4-------4---|> D|---5-------5-------5-------5-----|---5-------5-------5-------5-----|> A|---------------------------------|---------------------------------|> E|-3-------3-------3-------3-------|-3-------3-------3-------3-------|> 1 + 2 + 3 + 4 + 1 + 2 + 3 + 4 + e|-------0-------0-------0-------0-|-------0-------0-------0-------0-|> B|---------------------------------|---------------------------------|> G|-----2-------2-------2-------2---|-----2-------2-------2-------2---|> D|---0-------0-------0-------0-----|---0-------0-------0-------0-----|> A|---------------------------------|---------------------------------|> E|-2-------2-------2-------2-------|-2-------2-------2-------2-------|> 1 + 2 + 3 + 4 + 1 + 2 + 3 + 4 + e|-------0-------0-------0-------0-|-------0-------0-------0-------0-|> B|-----0-------0-------0-------0---|---------------------------------|> G|---0-------0-------0-------0-----|-----0-------0-------0-------0---|> D|---------------------------------|---2-------2-------2-------2-----|> A|---------------------------------|-3-------3-------3-------3-------|> E|-0-------0-------0-------0-------|---------------------------------|> 1 + 2 + 3 + 4 + 1 + 2 + 3 + 4 + e|-------2-------2-------2-------2-|---------------------------------|> B|-----3-------3-------3-------3---|-------1-------1-------1-------1-|> G|---2-------2-------2-------2-----|-----0-------0-------0-------0---|> D|-0-------0-------0-------0-------|---2-------2-------2-------2-----|> A|---------------------------------|-3-------3-------3-------3-------|> E|---------------------------------|---------------------------------|> 1 + 2 + 3 + 4 + 1 + 2 + 3 + 4 + e|-------2-------2-------2-------2-|-------0-------0-------0-------0-|> B|-----3-------3-------3-------3---|-----0-------0-------0-------0---|> G|---2-------2-------2-------2-----|---0-------0-------0-------0-----|> D|-0-------0-------0-------0-------|-2-------2-------2-------2-------|> A|---------------------------------|---------------------------------|> E|---------------------------------|---------------------------------|> 1 + 2 + 3 + 4 + 1 + 2 + 3 + 4 + e|-------2-------2-------2-------2-|---------------------------------|> B|-----3-------3-------3-------3---|-------0-------0-------0-------0-|> G|---2-------2-------2-------2-----|-----0-------0-------0-------0---|> D|---------------------------------|---1-------1-------1-------1-----|> A|-2-------2-------2-------2-------|-2-------2-------2-------2-------|> E|---------------------------------|---------------------------------|> 1 + 2 + 3 + 4 + 1 + 2 + 3 + 4 + PUENTE 4TA ESTROFA ====== =========== e|---------------------------------|---------------------------------|> B|-------0-------0-------0-------0-|-------0-------0-------0-------0-|> G|-----0-------0-------0-------0---|-----0-------0-------0-------0---|> D|---0-------0-------0-------0-----|---0-------0-------0-------0-----|> A|---------------------------------|---------------------------------|> E|-3-------3-------3-------3-------|-3-------3-------3-------3-------|> 1 + 2 + 3 + 4 + 1 + 2 + 3 + 4 + e|---------------------------------|---------------------------------|> B|---------------------------------|-------3-------3-------3-------3-|> G|---------------------------------|-----2-------2-------2-------2---|> D|-5-------4-------2-------0-------|---0-------0-------0-------0-----|> A|---------------------------------|---------------------------------|> E|---------------------------------|-2-------2-------2-------2-------|> 1 + 2 + 3 + 4 + 1 + 2 + 3 + 4 + e|---------------------------------|---------------------------------|> B|-------3-------3-------3-------3-|-------0-------0-------0-------0-|> G|-----2-------2-------2-------2---|-----0-------0-------0-------0---|> D|---0-------0-------0-------0-----|---2-------2-------2-------2-----|> A|---------------------------------|---------------------------------|> E|-2-------2-------2-------2-------|-0-------0-------0-------0-------|> 1 + 2 + 3 + 4 + 1 + 2 + 3 + 4 + e|---------------------------------|-------2-------2-------2-------2-|> B|-------1-------1-------1-------1-|-----3-------3-------3-------3---|> G|-----0-------0-------0-------0---|---2-------2-------2-------2-----|> D|---2-------2-------2-------2-----|-0-------0-------0-------0-------|> A|-3-------3-------3-------3-------|---------------------------------|> E|---------------------------------|---------------------------------|> 1 + 2 + 3 + 4 + 1 + 2 + 3 + 4 + e|---------------------------------|-------2-------2-------2-------2-|> B|-------1-------1-------1-------1-|-----3-------3-------3-------3---|> G|-----0-------0-------0-------0---|---2-------2-------2-------2-----|> D|---2-------2-------2-------2-----|-0-------0-------0-------0-------|> A|-3-------3-------3-------3-------|---------------------------------|> E|---------------------------------|---------------------------------|> 1 + 2 + 3 + 4 + 1 + 2 + 3 + 4 + e|-------0-------0-------0-------0-|-------2-------2-------2-------2-|> B|-----0-------0-------0-------0---|-----3-------3-------3-------3---|> G|---0-------0-------0-------0-----|---2-------2-------2-------2-----|> D|-2-------2-------2-------2-------|---------------------------------|> A|---------------------------------|-2-------2-------2-------2-------|> E|---------------------------------|---------------------------------|> 1 + 2 + 3 + 4 + 1 + 2 + 3 + 4 + e|---------------------------------|| B|-------0-------0-------0-------0-|| G|-----0-------0-------0-------0---|| D|---1-------1-------1-------1-----|| A|-2-------2-------2-------2-------|| E|---------------------------------|| 1 + 2 + 3 + 4 + ESTRIBILLO ==========
C C e|-0---0-0-0---0-0-0---0-0-0---0-0-|-0---0-0-0---0-0-0---0-0-0---0-0-|> B|-1---1-1-1---1-1-1---1-1-1---1-1-|-1---1-1-1---1-1-1---1-1-1---1-1-|> G|-0---0-0-0---0-0-0---0-0-0---0-0-|-0---0-0-0---0-0-0---0-0-0---0-0-|> D|-2-------2-------2-------2-------|-2-------2-------2-------2-------|> A|-3-------3-------3-------3-------|-3-------3-------3-------3-------|> E|---------------------------------|---------------------------------|> 1 + 2 + 3 + 4 + 1 + 2 + 3 + 4 +
G G e|-3---3-3-3---3-3-3---3-3-3---3-3-|-3---3-3-3---3-3-3---3-3-3---3-3-|> B|-0---0-0-0---0-0-0---0-0-0---0-0-|-0---0-0-0---0-0-0---0-0-0---0-0-|> G|-0---0-0-0---0-0-0---0-0-0---0-0-|-0---0-0-0---0-0-0---0-0-0---0-0-|> D|-0-------0-------0-------0-------|-0-------0-------0-------0-------|> A|-2-------2-------2-------2-------|-2-------2-------2-------2-------|> E|-3-------3-------3-------3-------|-3-------3-------3-------3-------|> 1 + 2 + 3 + 4 + 1 + 2 + 3 + 4 +
C C e|-0---0-0-0---0-0-0---0-0-0---0-0-|-0---0-0-0---0-0-0---0-0-0---0-0-|> B|-1---1-1-1---1-1-1---1-1-1---1-1-|-1---1-1-1---1-1-1---1-1-1---1-1-|> G|-0---0-0-0---0-0-0---0-0-0---0-0-|-0---0-0-0---0-0-0---0-0-0---0-0-|> D|-2-------2-------2-------2-------|-2-------2-------2-------2-------|> A|-3-------3-------3-------3-------|-3-------3-------3-------3-------|> E|---------------------------------|---------------------------------|> 1 + 2 + 3 + 4 + 1 + 2 + 3 + 4 +
G G e|-3---3-3-3---3-3-3---3-3-3---3-3-|-3---3-3-3---3-3-3---3-3-3---3-3-|> B|-0---0-0-0---0-0-0---0-0-0---0-0-|-0---0-0-0---0-0-0---0-0-0---0-0-|> G|-0---0-0-0---0-0-0---0-0-0---0-0-|-0---0-0-0---0-0-0---0-0-0---0-0-|> D|-0-------0-------0-------0-------|-0-------0-------0-------0-------|> A|-2-------2-------2-------2-------|-2-------2-------2-------2-------|> E|-3-------3-------3-------3-------|-3-------3-------3-------3-------|> 1 + 2 + 3 + 4 + 1 + 2 + 3 + 4 +
C C e|-0---0-0-0---0-0-0---0-0-0---0-0-|-0---0-0-0---0-0-0---0-0-0---0-0-|> B|-1---1-1-1---1-1-1---1-1-1---1-1-|-1---1-1-1---1-1-1---1-1-1---1-1-|> G|-0---0-0-0---0-0-0---0-0-0---0-0-|-0---0-0-0---0-0-0---0-0-0---0-0-|> D|-2-------2-------2-------2-------|-2-------2-------2-------2-------|> A|-3-------3-------3-------3-------|-3-------3-------3-------3-------|> E|---------------------------------|---------------------------------|> 1 + 2 + 3 + 4 + 1 + 2 + 3 + 4 +
G G e|-3---3-3-3---3-3-3---3-3-3---3-3-|-3---3-3-3---3-3-3---3-3-3---3-3-|> B|-0---0-0-0---0-0-0---0-0-0---0-0-|-0---0-0-0---0-0-0---0-0-0---0-0-|> G|-0---0-0-0---0-0-0---0-0-0---0-0-|-0---0-0-0---0-0-0---0-0-0---0-0-|> D|-0-------0-------0-------0-------|-0-------0-------0-------0-------|> A|-2-------2-------2-------2-------|-2-------2-------2-------2-------|> E|-3-------3-------3-------3-------|-3-------3-------3-------3-------|> 1 + 2 + 3 + 4 + 1 + 2 + 3 + 4 +
Em C e|-0---0-0-0---0-0-0---0-0-0---0-0-|-0---0-0-0---0-0-0---0-0-0---0-0-|> B|-0---0-0-0---0-0-0---0-0-0---0-0-|-1---1-1-1---1-1-1---1-1-1---1-1-|> G|-0---0-0-0---0-0-0---0-0-0---0-0-|-0---0-0-0---0-0-0---0-0-0---0-0-|> D|-2-------2-------2-------2-------|-2-------2-------2-------2-------|> A|-2-------2-------2-------2-------|-3-------3-------3-------3-------|> E|-0-------0-------0-------0-------|---------------------------------|> 1 + 2 + 3 + 4 + 1 + 2 + 3 + 4 +
G G e|-3---3-3-3---3-3-3---3-3-3---3-3-|-3---3-3-3---3-3-3---3-3-3---3-3-|> B|-0---0-0-0---0-0-0---0-0-0---0-0-|-0---0-0-0---0-0-0---0-0-0---0-0-|> G|-0---0-0-0---0-0-0---0-0-0---0-0-|-0---0-0-0---0-0-0---0-0-0---0-0-|> D|-0-------0-------0-------0-------|-0-------0-------0-------0-------|> A|-2-------2-------2-------2-------|-2-------2-------2-------2-------|> E|-3-------3-------3-------3-------|-3-------3-------3-------3-------|> 1 + 2 + 3 + 4 + 1 + 2 + 3 + 4 +
G G e|-3---3-3-3---3-3-3---3-3-3---3-3-|-3-------------------------------|| B|-0---0-0-0---0-0-0---0-0-0---0-0-|-0-------------------------------|| G|-0---0-0-0---0-0-0---0-0-0---0-0-|-0-------------------------------|| D|-0-------0-------0-------0-------|-0-------------------------------|| A|-2-------2-------2-------2-------|-2-------------------------------|| E|-3-------3-------3-------3-------|-3-------------------------------|| 1 + 2 + 3 + 4 + 1 + 2 + 3 + 4 + Si tienen alguna duda o quieren pedirme algún tab en especial (igualmente no garantizo nada) mándenme un mail a guille@cponline.org.ar.
Este fichero es trabajo propio de su transcriptor y representa su interpretación personal de la canción. El material contenido en esta página es
para exclusivo uso privado, por lo que se prohibe su reproducción o retransmisión, así como su uso para fines comerciales.
© LaCuerda.net · Aviso Legal · Privacidad