Acordes de Guitarra » B »Bersuit Vergarabat » Cárcel, hospital, o muerte (Tab)

Cárcel, hospital, o muerte
Bersuit Vergarabat

Letras, Acordes y Tabs para Guitarra, Bajo y Ukulele

  •     C5        B5       E5        C5      B5      E5
    E|-------|---------|---------|-------|---------|---|
    B|-------|---------|---------|-------|---------|---|
    G|-------|---------|---------|-------|---------|---|
    D|-2-2-2-|-1-1-2-4-|-5-2-----|-2-2-2-|-1-1-2-4-|-2-|
    A|-------|---------|-----2---|-------|---------|---|
    E|-------|---------|-------3-|-------|---------|---|
    
    
        C5        B5       E5        C5      B5      E5
    E|-------|---------|---------|-------|---------|---|
    B|-------|---------|---------|-------|---------|---|
    G|-------|---------|---------|-------|---------|---|
    D|-2-2-2-|-1-1-2-4-|-5-2-----|-5-5-5-|-4-4-5-4-|-2-|
    A|-------|---------|-----2---|-------|---------|---|
    E|-------|---------|-------3-|-------|---------|---|
    
    C5           B5     E5
    Date una oportunidad compañero
        C5        B5             E5
    
  • +
    ¡Colabora con nosotros!
    Envíanos tu versión de esta canción

Letra de Cárcel, hospital, o muerte
Date una oportunidad compañero
volvé porque acá no vas a estar más solo,
no te quedes con la primera impresión
si es que te parecemos un puñado de locos
(IGUAL A LA 1ER ESTROFA)
ya fuiste carne de cañón
Y perdiste la razón
ya cruzaste la franja
Y también bebiste de la zanja
el puntero sigue siempre ahí en la esquina
ya probaste todo lo que desafía a esta vida
(En "y perdiste la razón" hace una bajada cromática desde E hasta A#)
ya trataste de parar de mil maneras y más
ya te autoengañaste y te autoflagelaste
podes parar y que se te vaya el deseo
podes tener un despertar espiritual pero primero
grupo, padrino, programa, servicio o cárcel, hospital o muerte
grupo, padrino, programa, servicio o cárcel, hospital o muerte
(IGUAL A 1ER ESTROFA)
sos bienvenido a esta hermosa cofradía
se nos vino la noche pero hoy nos sonríe el día
nosotros somos los esclavos del silencio
dueños de las palabras y de un fuego muy intenso
Tu vieja forma de vivir vos ya la conoces
aquí hay una nueva, no tenes más nada que perder
ya no estas obligado a seguir perdiendo
a seguir huyendo, a seguir muriendo
(IGUAL A 3ER ESTROFA)
ya chocaste ocho mil veces con la misma piedra
no tenés por qué vivir siempre una vida de mierda,
esto es muy fácil, no hay más vueltas no
vos tenes los dos caminos, depende de vos
grupo, padrino, programa, servicio o cárcel, hospital o muerte
grupo, padrino, programa, servicio o cárcel, hospital o muerte
grupo, padrino, programa, servicio o cárcel, hospital o muerte
grupo, padrino, programa, servicio o cárcel, hospital o muerte
muerte!!




[Cárcel, hospital, o muerte chords][Cárcel, hospital, o muerte cifra]
© LaCuerda.net · aviso legal · privacidad · es · en · pt · contacto
DINAMICO