Acordes de Guitarra » B »Benny Ibarra » Hiéreme (Tab)

Hiéreme
Benny Ibarra

Letras, Acordes y Tabs para Guitarra, Bajo y Ukulele

  • D# A# Fm G#
    
    D#                        A#
    Antes de que en mi cabeza te vuelvas a enredar
    Fm                      G#
    con milagros y promesas deja de jugar
    D#                        A#
    Antes de que me conmuevas voy a transformar
    Fm        G#
    mis temores
    D#                          A#
    No estoy solo por tus ojos si en tus ojos quiero estar
    Fm                        G#
    no estoy solo por tu boca me ensordece tu silencio
    D#                          A#
    No estoy solo por tu cuerpo junto al fuego quise estar
    Fm     G#
    ardiendo
          D#        A#          Fm
    Creo que es la ultima oportunidad
    
  • Hola a todos, me puse a sacar el solo de esta buenisima cancion
    al ver que todavia no estaba aqui...
    Los acordes pueden sacarlos de la otra version de esta cancion que
    esta en la pagina... Espero les guste
    
    3:24
    e------------------------------------------------------
    b------------------------------------------------------
    g------4---3---4/6---6----6-6/8-6-6----3/4-3-----3-----
    d-/4-4---4---4-----4-------------------------4-4-------
    a------------------------------------------------------
    e------------------------------------------------------
    
    e------------------------------------------------------
    b-5/7-5-4-2---------------7-------7--------7~----------
    g-----------4-3---3-4/6-------4/6----4/6~--------------
    d---------------4-------4------------------------------
    a------------------------------------------------------
    e------------------------------------------------------
    
    e---------------------9-------9-------9----------------
    b-7-9b11-9-7-9---9b11-----11------11-------------------
    g-
  • +
    ¡Colabora con nosotros!
    Envíanos tu versión de esta canción

Letra de Hiéreme
Antes de que en mi cabeza te vuelvas a enredar
con milagros y promesas deja de jugar
Antes de que me conmuevas voy a transformar
mis temores
No estoy solo por tus ojos si en tus ojos quiero estar
no estoy solo por tu boca me ensordece tu silencio
No estoy solo por tu cuerpo junto al fuego quise estar
ardiendo
Creo que es la ultima oportunidad
de tenerte como ayer
Y sentirme vivo arrancarme el alma
Hiereme....Hiereme
Hiereme....Hiereme
Esta noche verte triste
fuego en mi respiración
intentar besar tu boca se me aumenta la distancia
Antes de que me desprenda voy hacercarme a la verdad
sin temores
Pero quiero que me hagas sentir
una vez más
que el dolor se convierta en lo unico que sienta
Hiereme....Hiereme
Hiereme....Hiereme
abrazando tu ausencia quiero besar tu voz
oir la riza de la distancia mis ojos por fin se van
Hiereme....Hiereme
Hiereme....Hiereme
Hiereme....Hiereme
Hiereme....Hiereme
OJALA LES GUSTE ESTA ROLA ......
SUGERENCIAS O COMENTARIOS A MI CORREO.....




[Hiéreme chords][Hiéreme cifra]
© LaCuerda.net · aviso legal · privacidad · es · en · pt · contacto
DINAMICO