Acordes de Guitarra » B »La Base » Vals del cau (Tab)

Vals del cau
La Base

Letras, Notas, Punteos, Tablaturas y Acordes de Guitarra (Tabs & Chords)

  • Letra y Acordes
    --6-6--6-6------------------------
    --8-8--8-8------------------------
    --8-8--8-8------------------------
    --8-8--8-8------------------------
    -6----6---------------------------
    ----------------------------------
    
    Como que me vengo, hay mamita que pedo que tengo 
    --6-6--6-6-----6-6------------------
    --6-6--6-6-----8-8------------------
    --7-7--7-7-----8-8------------------
    --8-8--8-8-----8-8------------------
    -8------------6---------------------
    ------6-----------------------------
    
    
    Como que me cai, como que me cai 
    
    Como que me caigo, hay mamita que pedo que traigo 
    (intro del teclado) junto a estos acordes
    
  • +
    ¡Colabora con nosotros!
    Envíanos tu versión de esta canción

Letra de Vals del cau
Como que me vengo, hay mamita que pedo que tengo
Como que me cai, como que me cai
Como que me caigo, hay mamita que pedo que traigo
Quiero ver a todo el mundo, bailando derrochados
Quiero ver a los borrachos, que levanten bien las manos
Que levanten bien las manos
Todos los borrachos cuando nos vamos de joda
La pasamos piola y bailamos a toda hora
Todos los borrachos cuando nos vamos de joda
Volvemo al otro dia, revolcado lleno de tierra
Volvemo al otro dia, pa pelear con la señora
Quiero ver a todo el mundo, bailando derrochados
Quiero ver a los borrachos, que levanten bien las manos
Que levanten bien las manos
ACordes:



© LaCuerda.net · Aviso Legal · Privacidad