Acordes de Guitarra » B »La Base » Me enamoré otra vez (Tab)

Me enamoré otra vez
La Base

Letras, Acordes y Tabs para Guitarra, Bajo y Ukulele

  • E-------------------------------------------------------------------
    A-------------------------------------------------------------------
    D-------------------------------------------------------------------
    g-------------------------------------------------------------------
    b-7-------------9---------9-7/9--9---------9-9---------9------------
    e---9-9-9-9-7-7---12-10-9----------12-10-9-----12-10-9----9-7-9-11--
    
    
    riff
    Yo pensaba que el amor se había olvidado de mi y ahora vez
    me enamoré otra vez
             A
    Yo que tenía el corazón herido
             Bm
    yo que creí que todo había perdido
               E                         A
    ahora me siento tan distinto aquí contigo
              A
    Yo que juré jamás enamorarme
              Bm
    
  • Intro: LA - SIm - RE - MI - LA
    
             LA
    Yo que tenía el corazón herido
             SIm
    yo que creí que todo había perdido
               RE         MI          LA
    ahora me siento tan distinto aquí contigo
              LA
    Yo que juré jamás enamorarme
              SIm
    que nadie más podría lastimarme
               RE            MI         FA#m
    hoy te doy todo por dentro, por tus besos,
          DO#m            RE         SIm
    tus caricias, por tu forma de mirarme
          MI            LA
    me atrapaste de verdad
    
    LA
    
  • E---------------------------------------------------------------
    A---------------------------------------------------------------
    D---------------------------------------------------------------
    g---------------------------------6-----------------------------
    b-4---------------6---------6-6-4---6-------6-6-------8---------
    e---4-6-6-6-4-4-4---9-8-6-6-----------9-8-6-----9-8-6---4-6-8-8-
    
    E---------------------------------------------------------------
    A---------------------------------------------------------------
    D---------------------------------------------------------------
    g-----------------------------6---------------------------------
    b-----------------------7-7-4---------6-----8-------------------
    e-4-6-6-6-4-4-4-9-8-7-7---------9-8-6---9-8---4-6-4-4-----------
    
    
             A
    Yo que tenía el corazón herido
             Bm
    yo que creí que todo había perdido
               D                         E
    
  • +
    ¡Colabora con nosotros!
    Envíanos tu versión de esta canción

Letra de Me enamoré otra vez
riff
Yo pensaba que el amor se había olvidado de mi y ahora vez
me enamoré otra vez
Yo que tenía el corazón herido
yo que creí que todo había perdido
ahora me siento tan distinto aquí contigo
Yo que juré jamás enamorarme
que nadie más podría lastimarme
hoy te doy todo por dentro, por tus besos,
tus caricias, por tu forma de mirarme
me atrapaste de verdad
Me enamoré otra vez
como jamás pensé
tu con tu risa borraste mis heridas
Me enamoré otra vez
y que más puedo hacer
tu le diste sentido a mi vida
Contigo se me pierden los minutos
y se me forma en la garganta un nudo
me siento como fuera de este mundo
Y me robaste el alma con un beso
y te metiste en medio de mis sueños
y me enseñaste a hacer canciones con tus besos
tus caricias, por que tu solo has podido
terminar mi soledad
Me enamoré otra vez
como jamás pensé
tu con tu risa borraste mis heridas
Me enamoré otra vez
y que más puedo hacer
tu le diste sentido a mi vida
por tu forma de mirame me atrapaste de verdad
Me enamoré otra vez
como jamás pensé
tu con tu risa borraste mis heridas
Me enamoré otra vez
y que más puedo hacer
tu le diste sentido a mi vida
bueno eso es todo se lo dedico a una chica muy especial
q se llama cintia sanabria...!




[Me enamoré otra vez chords][Me enamoré otra vez cifra]
© LaCuerda.net · aviso legal · privacidad · es · en · pt · contacto