Acordes de Guitarra » B »Barón Rojo » No Odas (Tab)

No Odas
Barón Rojo

Letras, Acordes y Tabs para Guitarra, Bajo y Ukulele

  • E|---------------------------------------------
    B|--8--7--5--------------8--7--5---------------
    G|-----------5--7--5--4-----------5--7--5--4---
    D|--5--5--5--0--0--0--0--5--5--5--0--0--0--0---
    A|---------------------------------------------
    E|---------------------------------------------
    
    E|----------------------------------------------
    B|----------------------------------------------
    G|-4--7-----7-----7--------7-----7--------7-----
    D|-0--0--0-----0--------0-----0--------0-----0--
    A|----------------------------------------------
    E|----------------------------------------------
    
    Stave 2:
    
    E|-----------------------------------------------
    B|--8--7--8--7--8--7--5-----8--7--8--7--8--7--5--
    G|-----------------------------------------------
    D|--5--5--5--5--5--5--5-----5--5--5--5--5--5--5--
    
  • +
    ¡Colabora con nosotros!
    Envíanos tu versión de esta canción

Letra de No Odas
Stave 2:
Stave 3:
Stave 4:
Stave 5:
Stave 6:
B|--12--10--12--10--12--10--8-
Stave 7:
Stave 8:
Stave 9:
D|-5--5--5--0--0--0--0--5--5--5--5--5--0--0--0--0--
Stave 10:




[No Odas chords][No Odas cifra]
© LaCuerda.net · aviso legal · privacidad · es · en · pt · contacto
DINAMICO