Acordes de Guitarra » B »Barón Rojo » Invulnerable (Tab)

Invulnerable
Barón Rojo

Letras, Acordes y Tabs para Guitarra, Bajo y Ukulele

  • |----------------|
    |----------------|
    |----------------|
    |----------------| Riff 1
    |--7-7-7-9-7-4---|
    |--5-5-5-7-5-2---|
    
    |----------------|
    |----------------|
    |----------------|
    |----------------| Riff 2
    |--7-7-7-6-2-4---|
    |--5-5-5-4-0-2---|
    
    |---------------|
    |---------------|
    |---------------|
    |---------------| Riff 3
    |--7--9--7--5---|
    |--5--7--5--3---|
    
    La cancion comienza con una intro que es un conjunto del riff 1 y riff 2.
    
    Luego empieza:
    
    Invulnerable me siento     Riff 1 
    a ese ataque feroz         Riff 2
    de unos nuevos traidores   Riff 1
    profetas del fin del rock  Riff 2
    
    Tienen complejo de viejos  Riff 1
    y necesitan buscar         Riff 2
    entre esnobismo y basura   Riff 1
    la nueva revolución        Riff 2
    
    piensan que es fácil defenestrar |
    mas de veinte años de creación   | Aqui suena 
    desde los Beatles a Ac/Dc        | el riff 3
    desde Chuck Berry a Converdale   |
    
    Pasamos de tecnocracia | Aqui hay un
    de isótopos y candor   | peq
  • +
    ¡Colabora con nosotros!
    Envíanos tu versión de esta canción






[Invulnerable chords][Invulnerable cifra]
© LaCuerda.net · aviso legal · privacidad · es · en · pt · contacto
DINAMICO