Acordes de Guitarra » B »Barak » Libre Soy (Tab)

Libre Soy
Barak

  • Letra y Acordes
    Intro:  Am  F   C    G
    
    Am                        F
    Salvo soy, mi alegría está en Tu amor
                  C                              G
    Hoy te canto porque Tu, me hiciste libre en esa cruz
    Am                      F
    Exaltare, día y noche adorare
                  C                   G
    Porque libre soy en Ti, eres todo mi vivir
    
          Am
    Las cadenas fueron rotas
           F
    En su nombre, yo he vencido
           C          G
    Libre soy, libre soy
    
                Am            F
    Me hiciste libre y hoy puedo danzar
    
  • Letra y Acordes
    A A(2do A arriba) G G C D E C A
    
    mientras se hacen ataques en en A
    
    Intro:  Am  F   C    G
    
    Figura guitarra(también se toca en coro "Notas"):
    
    //A A A G G G C C//
    //escala abajo estos primeros(G G G) G G G C C//
    
    
    Estrofas:
    
    Am                        F
    Salvo soy, mi alegría está en tu amor
                  C                              G
    hoy te canto porque tu, me hiciste libre en una cruz
    Am                      F
    Exaltare, día y noche adorare
    
  • Tablatura
    E--------------------------------------------
    B-------10/8-------8-------------------------
    G--------------------9-------9-7----10-9-7---
    D--7-7--------7-7-------7-7----------0-0-0---
    A--------------------------------------------
    E--------------------------------------------
    
    Intro II
    
    E------------15-15-15-------------- Esta figura se toca
    B----------------------13-13-13---- sobre los tonos de
    G--14-14-14------------------------ Am y F.
    
    E------------15-15-15--------------
    B----------------------13-13-13---- Y estos sobre C y G.
    G--12-12-12------------------------
    
    Verso
    ...
    
    
  • +
    ¡Colabora con nosotros!
    Envíanos tu versión de esta canción

Letra de Libre Soy
Salvo soy, mi alegría está en Tu amor
Hoy te canto porque Tu, me hiciste libre en esa cruz
Exaltare, día y noche adorare
Porque libre soy en Ti, eres todo mi vivir
Las cadenas fueron rotas
En su nombre, yo he vencido
Libre soy, libre soy
Me hiciste libre y hoy puedo danzar
Me hiciste libre por Tu gran amor
Me hiciste libre y hoy puedo gritar que libre soy
Libre soy, libre soy
Libre soy, libre soy
Libre soy, libre soy
Libre soy, libre soy



© LaCuerda.net · aviso legal · privacidad · contacto