Acordes de Guitarra » B »Banda El Recodo » Te Presumo (Tab)

Te Presumo
Banda El Recodo

  • Letra y Acordes
    intro: G# Fm C# D# x2
    
            G#
     Te presumo,
                                           Fm
     por que un verdadero amor nunca se esconde
            C#                         D#
     porque es un gran orgullo ser tu hombre
    
            G#
     te presumo
                                    Fm
     porque eres para mi un gran tesoro
              C#                         D#
     y quiero estar junto a ti de cualquier modo
    
    coro
            G#
     te presumo
                                   Fm
    
  • Letra y Acordes
     D*   G*
    -5----3--
    -5----3--
    -6----4--
    -7----5--
    -7----5--
    -5----3--
    
    
    A F#m Bm E
    
    A
    Te presumo,
                                          F#m
    por que un verdadero amor nunca se esconde
           Bm                         E
    porque es un gran orgullo ser tu hombre
          A
    te presumo
                                  F#m
    
  • Tablatura
    e|-2-3-5--5-5-5----2-3-5--5-5-5--3-2-0-2-0--|
    b|-3-5-7--7-7-7----3-5-7--7-7-7--5-3-2-3-2--|
    g|-----6--6-6-6--------6--6-6-6-------------|
    D|------------------------------------------|
    A|------------------------------------------|
    E|------------------------------------------|
    
    (esto va algo rapido)
    
    e|-8-9--10-10-10-9--10-9--10-10-10--9-7-7-5--|
    b|-9-10-12-12-12-10-12-10-12-12-12-10-9-9-6--|
    g|-------------------------------------------|      [X2]
    D|-------------------------------------------|
    A|-------------------------------------------|
    E|-------------------------------------------|
    
    (2da guitarra)
    (F/G es un puente para pasar a Em si quieres no lo uses)
    nota:_este bajeo solo sera en el requinto.
            G        G        *       Em        C           D
    
  • +
    ¡Colabora con nosotros!
    Envíanos tu versión de esta canción

Letra de Te Presumo
Te presumo,
por que un verdadero amor nunca se esconde
porque es un gran orgullo ser tu hombre
te presumo
porque eres para mi un gran tesoro
y quiero estar junto a ti de cualquier modo
te presumo
porque eres para mi toda una reina
me facina
el saber que tu me quieres y deseas
te presumo
como un loco te menciono todo el dia
te presumo
para ke el mundo sepa ke eres mia
te presumo
porke la verdad pareces muñequita
andes como andes nadie te lo quita
y me siento
poderoso komo ningun otro humano
kada vez ke yo te tomo de la mano
te presumo
porque eres para mi toda una reina
me facina
el saberque tu me quieres y deseas
te presumo
como un loco te menciono todo el dia
te presumo
para ke el mundo sepa... ke eres mia
Ahi esta, una cancion sencilla, cualquier duda,aclaracion, queja,
propuesta indecorosa (solo mujeres) a mi correo.
chao



© LaCuerda.net · aviso legal · privacidad · contacto