Acordes de Guitarra » A »los Auténticos Decadentes » Tamayo (Tab)

Tamayo
los Auténticos Decadentes

Letras, Notas, Punteos, Tablaturas y Acordes de Guitarra (Tabs & Chords)

  • Tablatura
    E---10-10---------------------------------    |
    B--------12-12-10-10----------------------    | SE TOCA
    G-------------------11-11-9-9-------------    |  DOS
    D----------------------------12-12-9-9----    | VECES
    A-------------------------------------12-12   |
    E------------------------------------------   |
    
    E---10-10---------------------------------
    B--------12-12-10-10----------------------
    G-------------------11-11-9-9-------------
    D----------------------------12-12-9------
    A-----------------------------------------
    E------------------------------------------
    
    e---------------------------------------------------------
    B---------------------------------------------------------
    G---------------------------------------------------------
    D-----------9-12--------9-12--------9--12--9-12-9-12-9--12
    A---12-12-12----12-12-12----12-12-12----------------------
    E---------------------------------------------------------
    
  • +
    ¡Colabora con nosotros!
    Envíanos tu versión de esta canción

Letra de Tamayo
En el barrio lo conoce todo el mundo
como un tipo singular,
un loco de verdad. La, la, la...
Todos dicen que era un tipo macanudo
y ahora tiene un problema,
lo vienen a buscar. La, la, la...
Se lo quieren llevar. La, la, la...
Corré Tamayo, corré
que te sigue la policía y te va a alcanzar.
Corré Tamayo, corré
escapá de la policía y de la ciudad.
Ohoooo, Ohoooo, Ohoooo, Ohooo
(SUGIERO TOCAR CON MUCHO TREMOLO, PARA QUE HAGA EL EFECTO
COMO SI FUERA MUSICA CHINA/TEXANA)
(Esta parte se toca igual a la primera estrofa)
Trabajaba de encargado de limpieza
en el circo del terror,
que rara vocación
Quien diría que el final de tu carrera
termino en un paredón,
como la de perón.
Corré Tamayo, corré
que te sigue la policía y te va a alcanzar.
Corré Tamayo, corré
escapá de la policía y de la ciudad.
Ohoooo, Ohoooo, Ohoooo, Ohooo
(SUGIERO TOCAR CON MUCHO TREMOLO, PARA QUE HAGA EL EFECTO]
COMO SI FUERA MUSICA CHINA/TEXANA)
(De aquí en adelante se repiten estos dos acordes)

[ver todas las canciones]


© LaCuerda.net · Aviso Legal · Privacidad