Acordes de Guitarra » A »los Auténticos Decadentes » Amor (Tab)
  • Letra y Acordes
    LAm                                  REm
    Cansado de buscar, y herido en mil fracasos
                                  SOL 
    habia decidido caminar en soledad,
                                       DO 
    sin penas ni pasion, y en eso apareciste
            MI 
    todo cambio.
    Me fui acercando a vos con suma precaucion,
    midiendo cada faso, retorcido en mi interior,
    librandome de miedos y de deudas del ayer
    para intentar de nuevo, volver a creer
    
    REm
        Me entregue y no me arrepiento
    LAm 
    nunca estuve asi de contento
    REm
        y me paso el dia cantando,
    MI 
    
  • Tablatura
    e|---------0---------------0------|
    B|-----1-------1-------1-------1--|
    G|---2---2---2---2---2---2---2---2|  Se repite dos veces
    D|--------------------------------| Am
    A|-0---------------0--------------|
    E|--------------------------------|
    
       Cansado de buscar, y herido en mil fracasos
    e|---------0---------------0------|
    B|-----1-------1-------1-------1--|
    G|---2---2---2---2---2---2---2---2|
    D|--------------------------------| Am
    A|-0---------------0--------------|
    E|--------------------------------|
    
    
       Había decidido caminar en soledad
    e|---------1---------------1------|
    B|-----3-------3-------3-------3--|
    G|---2---2---2---2---2---2---2---2|
    
  • +
    ¡Colabora con nosotros!
    Envíanos tu versión de esta canción

Letra de Amor
Cansado de buscar, y herido en mil fracasos
habia decidido caminar en soledad,
sin penas ni pasion, y en eso apareciste
todo cambio.
Me fui acercando a vos con suma precaucion,
midiendo cada faso, retorcido en mi interior,
librandome de miedos y de deudas del ayer
para intentar de nuevo, volver a creer
Me entregue y no me arrepiento
nunca estuve asi de contento
y me paso el dia cantando,
sin pensar hasta cuando...
Amor, cierro los ojos y salto al vacio
Amor como negarme a tu calido abismo
Amor, sutil, narcotico, suave y fragante
Amor, puede hacer polvo el diamante
Cansado de buscar, y herido en mil fracasos
habia decidido caminar en soledad,
sin penas ni pasion, y en eso apareciste
todo cambio.
Me fui acercando a vos con suma precaucion,
midiendo cada faso, retorcido en mi interior,
librandome de miedos y de deudas del ayer
para intentar de nuevo, volver a creer
Me entregue y no me arrepiento
nunca estuve asi de contento
y me paso el dia cantando,
sin pensar hasta cuando...



© LaCuerda.net · aviso legal · privacidad · contacto