Acordes de Guitarra » A »Ateos Gracias A Dios » Te Lo Vi (Tab)

Te Lo Vi
Ateos Gracias A Dios

Letras, Acordes y Tabs para Guitarra, Bajo y Ukulele

  • Intro: DO - SOL - LA - FA
    
    e|-----3-----3-----5----1---
    B|-----5-----3-----5----1---
    D|-----5-----4-----6----2---
    G|-----5-----5-----7----3---
    A|-----3-----5-----7----3---
    E|-----3-----3-----5----1---
    
    Luego hace un punteo que es asi...
    
    e|--9-11-9-8-7---7-6-5---5-7-9-
    B|-----------------------------
    D|-----------------------------
    G|-----------------------------
    A|-----------------------------
    E|-----------------------------
    _____________________________________________________________________________
    
    Aqui empieza con un rasgueo acorde a la cancion
    
  • +
    ¡Colabora con nosotros!
    Envíanos tu versión de esta canción

Letra de Te Lo Vi
Luego hace un punteo que es asi...
_____________________________________________________________________________
Aqui empieza con un rasgueo acorde a la cancion
(para eso hay que escucharla)...
Te estabas bañando
con la ventana abierta
de pronto te agachaste y
te lo viii....
Te lo vi, te lo vi
Te lo vi, yo te lo vi
de pronto te agachaste y
te lo viii....
___________________________________
Aki es lo mismo, pero ahora con
el ritmo del ska...
___________________________________
Te estabas bañando
con la ventana abierta
de pronto te agachaste y
te lo viii....
Te lo vi, te lo vi
Te lo vi, yo te lo vi
de pronto te agachaste y
te lo viii....
Luking and baby
luking and yeah
luking and baby
let it be...yeah !
Te lo vi, te lo vi
Te lo vi, yo te lo vi
de pronto te agachaste y
te lo viii....
_____________________________________________________________________________
Eso es todo cancion completaaaa

Video de Te Lo Vi
[]




[Te Lo Vi chords][Te Lo Vi cifra]
© LaCuerda.net · aviso legal · privacidad · es · en · pt · contacto