Acordes de Guitarra » A »Ararat » Lobos de guerra y cazadores de elefantes (Tab)

Lobos de guerra y cazadores de elefantes
Ararat

Letras, Acordes y Tabs para Guitarra, Bajo y Ukulele

  • paso la tablatura para bajo masomenos como la escucho.
    cualquier duda , consulta, puteada a navarromatiase@gmail.com
    intro:Riff 1
    
    g---------------------
    d---------------------
    a---------------------
    e--5-6-5-6-5-6-5-6-7-8
    
    estrofa: riff 1
    
    si salis que andar
    sin capacidad
    antes de nacer
    al amanecer
    
    inter: riff 2
    g---------------------
    d---------------------
    a---------------------
    e--3-4-3-4-3-4-3-4-5-6
    
    riff 3
    
    g---------------------------
    d---------------------------
    a---------------------------
    e--5-5-5-5-5-5-8-8-5-5-6-5-3-5
    
    g-----------------------------
    d-----------------------------
    a-----------------------------
    e--5-5-5-5-5-5--5-5-3-3--3-3-1-1
    
    
    estribillo: riff 3
    
    voy a salir lo vas a sentir
    te voy a encontrar sacrificar
    vas a salir lo vas a sentir
    voy a arriesgar para cambiar
    
    
    inter: riff 1
    
    riff4
    g---------------------------------
    d---------------------------------
    a---------------------------------
    e--5-6-7-8-5-6-7-8-5-6-7-8-5-6-7-8
    
    riff 1
    
    
    estrofa: riff 1
    
    si vas a ca
  • +
    ¡Colabora con nosotros!
    Envíanos tu versión de esta canción






[Lobos de guerra y cazadores de elefantes chords][Lobos de guerra y cazadores de elefantes cifra]
© LaCuerda.net · aviso legal · privacidad · es · en · pt · contacto
DINAMICO