Acordes de Guitarra » A »Ararat » El camino del mono (Tab)

El camino del mono
Ararat

Letras, Acordes y Tabs para Guitarra, Bajo y Ukulele

  • Paso tab para bajo tal como masomenos lo escucho, cualquier consulta,
    duda, puteada, comentario a navarromatiase@gmail.com
    
    intro: riff 1
    
    g-------------------------------------
    d-------------------------------------
    a-7-7-7-7-8---------------------------
    e-------------5-5-5-5-6---------------
    
    g-------------------------------------
    d-------------------------------------
    a-7-7-7-7-8---------------------------
    e-------------5-5-5-5-5/3-3/1---------
    
    estrofa: riff 1
    
    ya no puedo seguir
    cambiando de color
    despertar recibir
    la energia del sol
    
    riff 1
    
    ya no puedo cambiar
    modificar
    lo que es propio de ti
    y en mi la verdad
    
    estrofa: riff 2
    
    
    g----------------------------------------------------------
    d----------------------------------------------------------
    a----------------------------------------------------------
    e-3-3-3--3-5-6--6--6-5-6-7-8-7-8-8-8h10p8--8-7-8-8-8h10p8--
    
    
    ya no puedo seguir cambiando el color
    despertar recibir la fuerza del sol
    ya no quiero cambiar modificar
    lo que es
  • +
    ¡Colabora con nosotros!
    Envíanos tu versión de esta canción






[El camino del mono chords][El camino del mono cifra]
© LaCuerda.net · aviso legal · privacidad · es · en · pt · contacto
DINAMICO