Acordes de Guitarra » A »Antonio Ríos » Yo me estoy enamorando (Tab)

Yo me estoy enamorando
Antonio Ríos

Letras, Notas, Punteos, Tablaturas y Acordes de Guitarra (Tabs & Chords)

  • Letra y Acordes
    Dm C Dm C Dm
    Intro
    
    Dm
    Yo me estoy enamorando, yo me estoy enamorando
          C
    de tu forma de mirar siento q voy a estallar
    Dm
    yo me estoy imaginando, yo me estoy imaginando
         C
    q te tengo entre mi piel q algun dia te tendre
    Bb                             C
    yo me estoy enamorando de tu manera de bailar
    Bb                               C              Dm C Edim Dm
    tu me estas enloqueciendo con tu forma de mirar
    
    Dm                     C
    Corazon, ya no puedo estar sin ti
    A7            Dm                        C
    ya no puedo estar sin ti, ya no puedo estar sin ti
    
  • Tablatura
       Ebm
    e|---------------------------------------------|
    b|---------------------2-----------------2-4-2-|
    g|---3---3-----3-----3-----3---3-----3-4-------|
    D|-1-4-1-4-1-1-4-1-4-----1-4-1-4-1-1-----------|
    A|---------------------------------------------|
    E|---------------------------------------------|
    
       Db
    e|---------------------------------------------|
    b|---------------------2-----------------------|
    g|---1---1-----1-----1-----1---1---------1-4-3-|
    D|---3---3-----3---3-------3---3-----3-4-------|
    A|-4---4---4-4---4-------4---4---4-4-----------|
    E|---------------------------------------------|
    
       Ebm
    e|----------------------------9-11-|
    b|----11----11-------11----11------|
    g|-11----11----11-11----11---------|
    
  • +
    ¡Colabora con nosotros!
    Envíanos tu versión de esta canción

Letra de Yo me estoy enamorando
Yo me estoy enamorando, yo me estoy enamorando
de tu forma de mirar siento q voy a estallar
yo me estoy imaginando, yo me estoy imaginando
q te tengo entre mi piel q algun dia te tendre
yo me estoy enamorando de tu manera de bailar
tu me estas enloqueciendo con tu forma de mirar
Corazon, ya no puedo estar sin ti
ya no puedo estar sin ti, ya no puedo estar sin ti
con tu cariño seria muy feliz
Corazon, ya no puedo estar sin ti
ya no puedo estar sin ti, ya no puedo estar sin ti
ay diva mia no me hagas sufrir
Musica
m
Yo me estoy enamorando, yo me estoy enamorando
de tu forma de mirar siento q voy a estallar
yo me estoy imaginando, yo me estoy imaginando
q te tengo entre mi piel q algun dia te tendre
yo me estoy enamorando de tu manera de bailar
tu me estas enloqueciendo con tu forma de mirar
Corazon, ya no puedo estar sin ti
ya no puedo estar sin ti, ya no puedo estar sin ti
con tu cariño seria muy feliz
Corazon, ya no puedo estar sin ti
ya no puedo estar sin ti, ya no puedo estar sin ti
ay vida mia no me hagas sufrir
Musica
Corazon, ya no puedo estar sin ti
ya no puedo estar sin ti, ya no puedo estar sin ti
con tu cariño seria muy feliz
Corazon, ya no puedo estar sin ti
ya no puedo estar sin ti, ya no puedo estar sin ti
ay vida mia no me hagas sufrir
Musica



© LaCuerda.net · Aviso Legal · Privacidad