Acordes de Guitarra » A »Antonio Ríos » Nunca Me Faltes (Tab)

Nunca Me Faltes
Antonio Ríos

Letras, Acordes y Tabs para Guitarra, Bajo y Ukulele

  •                         Em                     Am
    e|------------------------------------------------|
    B|------------------------------------------------|
    G|------------------------------------------------|
    D|--------5-5-4-5-4-5-4----------5-5-4-5-4-5-4----|
    A|----5-7---------------7----5-7---------------3--|
    E|--7----------------------7----------------------|
    
        D ( 2 veces )             G       B
    e|-------------------|--------------------------------|
    B|-------------------|----------0-2-3-4------2-3-(5)--|
    G|-------------------|--0-2-3-4----------4-4----------|
    D|--7-5-4------------|--------------------------------|
    A|--------7-5-3-5-5--|--------------------------------|
    E|-------------------|--------------------------------|
    
    Em
    quiero decirte al oido, tantas cosas preciosas 
                            Am
    que estoy sintiendo por tí
    
  •                         Em                     Am
    e|------------------------------------------------|
    B|------------------------------------------------|
    G|------------------------------------------------|
    D|--------5-5-4-5-4-5-4----------5-5-4-5-4-5-4----|
    A|----5-7---------------7----5-7---------------3--|
    E|--7----------------------7----------------------|
    
        D ( 2 veces )             G       B
    e|-------------------|--------------------------------|
    B|-------------------|----------0-2-3-4------2-3-(5)--|
    G|-------------------|--0-2-3-4----------4-4----------|
    D|--7-5-4------------|--------------------------------|
    A|--------7-5-3-5-5--|--------------------------------|
    E|-------------------|--------------------------------|
    
    Em
    quiero decirte al oido, tantas cosas preciosas
                            Am
    que estoy sintiendo por tí
    
  • +
    ¡Colabora con nosotros!
    Envíanos tu versión de esta canción

Letra de Nunca Me Faltes
quiero decirte al oido, tantas cosas preciosas
que estoy sintiendo por tí
que te quiero que te adoro
tu eres la mujer que he soñado
que me haces muy feliiiiz
que cuando no estáaas me falta el aire
tu eres la razóoon de mi existir
amor por favooor nunca me faltes
porque tu eres todo para mí
nunca me faltes, nunca me engañes
que sin tu amor, yo no soy nadie




[Nunca Me Faltes chords][Nunca Me Faltes cifra]
© LaCuerda.net · aviso legal · privacidad · es · en · pt · contacto