Acordes de Guitarra » A »Andrés de León » Sigues siendo tu (Tab)

Sigues siendo tu
Andrés de León

Letras, Acordes y Tabs para Guitarra, Bajo y Ukulele

  • ------------------------------------------------------------------
    () = fret o espacio
    
            X1
    E-----3---------
    B-----1---------
    G---0---0--------
    D--------------
    A-2-------------
    E--------------
    
            X2
    E-------1-------
    B-------0-------
    G-------0-------  SOl y algo , nose cual es
    D-------0-------
    A-------2-------
    E-------3-------
    
            X3
    
  • E||------------3--------|------------3--------|--7------5------0----|
    B||-------1-------------|-------3-------------|---------------------|
    G||--0---------0--------|--0---------0--------|---------------------|
    D||---------------------|---------------------|--9------7------2----|
    A||--3------------------|---------------------|---------------------|
    E||---------------------|--3------------------|---------------------|
    
    
    
    E||--3------1-----------|---------------------|---------------------|
    B||----------------1----|--1------0------3----|---------------------|
    G||---------------------|---------------------|---------------------|
    D||--5------3-----------|---------------------|---------------------|
    A||----------------3----|--3------2------5----|---------------------|
    E||---------------------|---------------------|---------------------|
    
    ----------Estrofa I-----------
    
             DO
    Sigues siendo tu
    
  • +
    ¡Colabora con nosotros!
    Envíanos tu versión de esta canción

Letra de Sigues siendo tu
() = fret o espacio
X1
X2
X3
X4
do X1 lam
Sigues siendo tu
X2
la unica en mi vida
Mi refugio mi salida
La que cura mis heridas
Sigues siendo tu
Mi eterna compañia
La fuerza que me guia
Cuando no hay un buen dia.
Sigues siendo tu solo tu
Aun sigues siendo tu
La que me enseño amar
Aun sigues siendo tu
Con quien quiero despertar hasta el final
Aun sigues siendo tu
Todo lo que yo soñe
Y que nunca imagine amar asi
Ante Dios te juro, sigues siendo tu
VERSO 2
Sigues siendo tu
X2
Mi amante fiel, mi amiga
A quien le entregaria
Sin pensar toda mi vida
Sigues siendo tu
Perfecta sin medida
Mi luz mi ser mi vida
A quien simpre amaria
Sigues siendo tu solo tu
Aun sigues siendo tu
La que me enseño amar
Aun sigues siendo tu
Con quien quiero despertar hasta el final
Aun sigues siendo tu
Todo lo que yo soñe
Y que nunca imagine amar asi
Ante Dios te juro, sigues siendo tu
Aun sigues siendo cada nuevo amanecer
Aun sigues siendo cada parte de mi ser
Sigues siendo tu a quien amare
Una y mil veces, volveria a apostar por ti
Sin ti no habria nada no sabria vivir
Siempre has sido tu
Aun sigues siendo tu
La que me enseño amar
Aun sigues siendo tu
Con quien quiero despertar hasta el final
Aun sigues siendo tu
Todo lo que yo soñe
Y que nunca imagine amar asi
Ante Dios te juro,
Ante Dios te juro,
Ante Dios te juro,
sigues siendo tu




[Sigues siendo tu chords][Sigues siendo tu cifra]
© LaCuerda.net · aviso legal · privacidad · es · en · pt · contacto