Acordes de Guitarra » A »Andrés de León » Nos Dolerá (Tab)

Nos Dolerá
Andrés de León

  • Letra y Acordes
       G                        Em7                   D
    e|----------------------------|-----------------------|--2------------|
    b|-1-----0--------------------|-1-----0---------------|--3------------|
    g|---0-----0---2----2-0---0---|---0-----0---2-----2-0-|--2------0-2---|
    D|-----0-----0----0-----0-----|-----2-----2-----2-----|--0--2/4-----0-|
    A|----------------------------|---------------2-------|--x------------|
    E|-3-----3-----3------3-----3-|-0-----0-----0-------0-|--x------------|
    
       C             D        G
    e|-0------------|--2-----|----3----|
    b|-1------------|--3-----|----3----|
    g|-0---------0--|--2-----|----0----|
    D|-2----2/4-----|--0-----|----0----|
    A|-3------------|--x-----|----2----|
    E|-x------------|--x-----|----3----|
    
    G
    Tu indecisión mi frustración miradas que no miran nada,
     Em7                                      D
    el corazón colgado en la pared, es que seguir así ya no tiene sentido
    
  • +
    ¡Colabora con nosotros!
    Envíanos tu versión de esta canción

Letra de Nos Dolerá
Tu indecisión mi frustración miradas que no miran nada,
el corazón colgado en la pared, es que seguir así ya no tiene sentido
porque no sé si alguna vez algo sentimos
No cambiare no cambiaras es la verdad,
ya no hay manera de mentir de sobreactuar,
porque jugamos sin medir y nos herimos,
porque no sé si alguna vez algo sentimos
Y me iré y te iras, sin tener un mapa sin tener destino…
Nos dolerá, vivir sabiendo que no hemos vivido, nos dolerá pensar,
las cosas que en vano prometimos.
Nos dolerá, el beso ese tiempo que perdimos, nos dolerá aceptar
las marcas en la piel los besos de papel, que nada fue
real, solo fingimos
Resignación a la ilusión tu ausencia que duerme en mi almohada,
y en el cajón caricias que guarde, por que seguir así ya no tiene sentido
porque no sé si alguna vez algo sentimos
Y me iré y te iras, sin tener un mapa sin tener destino…
Nos dolerá ...
Nos dolerá, vivir sabemos que no hemos vivido,
nos dolerá, pensar las cosas que en vano prometimos
Nos dolerá, el beso este tiempo que perdimos,
nos dolerá aceptar las marcas en la piel los besos de papel que nada fue real
(termina con una parte del intro)



© LaCuerda.net · aviso legal · privacidad · contacto